  0
SECTION
  2
HEADER
  9
$ACADVER
  1
AC1032
  9
$ACADMAINTVER
 90
      230
  9
$DWGCODEPAGE
  3
ANSI_1252
  9
$LASTSAVEDBY
  1
jskala
  9
$REQUIREDVERSIONS
160
                 0
  9
$INSBASE
 10
0.0
 20
0.0
 30
0.0
  9
$EXTMIN
 10
2437.587899055827
 20
-587.5480210935613
 30
-0.0015258207003583
  9
$EXTMAX
 10
3216.449936045394
 20
-465.758527218175
 30
0.0000000349246037
  9
$LIMMIN
 10
0.0
 20
0.0
  9
$LIMMAX
 10
0.0
 20
0.0
  9
$ORTHOMODE
 70
     1
  9
$REGENMODE
 70
     1
  9
$FILLMODE
 70
     1
  9
$QTEXTMODE
 70
     0
  9
$MIRRTEXT
 70
     1
  9
$LTSCALE
 40
2.0
  9
$ATTMODE
 70
     1
  9
$TEXTSIZE
 40
2.0
  9
$TRACEWID
 40
0.05
  9
$TEXTSTYLE
  7
ARIAL
  9
$CLAYER
  8
1
  9
$CELTYPE
  6
ByLayer
  9
$CECOLOR
 62
   256
  9
$CELTSCALE
 40
1.0
  9
$DISPSILH
 70
     0
  9
$DIMSCALE
 40
1.0
  9
$DIMASZ
 40
0.5
  9
$DIMEXO
 40
1.5
  9
$DIMDLI
 40
6.0
  9
$DIMRND
 40
0.0
  9
$DIMDLE
 40
0.0
  9
$DIMEXE
 40
0.18
  9
$DIMTP
 40
0.0
  9
$DIMTM
 40
0.0
  9
$DIMTXT
 40
1.0
  9
$DIMCEN
 40
0.09
  9
$DIMTSZ
 40
0.0
  9
$DIMTOL
 70
     0
  9
$DIMLIM
 70
     0
  9
$DIMTIH
 70
     0
  9
$DIMTOH
 70
     0
  9
$DIMSE1
 70
     0
  9
$DIMSE2
 70
     0
  9
$DIMTAD
 70
     0
  9
$DIMZIN
 70
     3
  9
$DIMBLK
  1

  9
$DIMASO
 70
     1
  9
$DIMSHO
 70
     1
  9
$DIMPOST
  1

  9
$DIMAPOST
  1

  9
$DIMALT
 70
     0
  9
$DIMALTD
 70
     2
  9
$DIMALTF
 40
25.4
  9
$DIMLFAC
 40
1.0
  9
$DIMTOFL
 70
     0
  9
$DIMTVP
 40
0.0
  9
$DIMTIX
 70
     0
  9
$DIMSOXD
 70
     1
  9
$DIMSAH
 70
     0
  9
$DIMBLK1
  1

  9
$DIMBLK2
  1

  9
$DIMSTYLE
  2
ONE
  9
$DIMCLRD
 70
   256
  9
$DIMCLRE
 70
   256
  9
$DIMCLRT
 70
   256
  9
$DIMTFAC
 40
1.0
  9
$DIMGAP
 40
0.78125
  9
$DIMJUST
 70
     0
  9
$DIMSD1
 70
     0
  9
$DIMSD2
 70
     0
  9
$DIMTOLJ
 70
     1
  9
$DIMTZIN
 70
     0
  9
$DIMALTZ
 70
     0
  9
$DIMALTTZ
 70
     0
  9
$DIMUPT
 70
     0
  9
$DIMDEC
 70
     4
  9
$DIMTDEC
 70
     4
  9
$DIMALTU
 70
     2
  9
$DIMALTTD
 70
     2
  9
$DIMTXSTY
  7
ARIAL
  9
$DIMAUNIT
 70
     0
  9
$DIMADEC
 70
     0
  9
$DIMALTRND
 40
0.0
  9
$DIMAZIN
 70
     0
  9
$DIMDSEP
 70
     0
  9
$DIMATFIT
 70
     3
  9
$DIMFRAC
 70
     0
  9
$DIMLDRBLK
  1

  9
$DIMLUNIT
 70
     4
  9
$DIMLWD
 70
    25
  9
$DIMLWE
 70
    25
  9
$DIMTMOVE
 70
     1
  9
$DIMFXL
 40
1.0
  9
$DIMFXLON
 70
     0
  9
$DIMJOGANG
 40
0.7853981633974483
  9
$DIMTFILL
 70
     0
  9
$DIMTFILLCLR
 70
     0
  9
$DIMARCSYM
 70
     0
  9
$DIMLTYPE
  6
ByLayer
  9
$DIMLTEX1
  6
ByLayer
  9
$DIMLTEX2
  6
ByLayer
  9
$DIMTXTDIRECTION
 70
     0
  9
$LUNITS
 70
     4
  9
$LUPREC
 70
     3
  9
$SKETCHINC
 40
0.1
  9
$FILLETRAD
 40
0.5
  9
$AUNITS
 70
     0
  9
$AUPREC
 70
     0
  9
$MENU
  1
acad
  9
$ELEVATION
 40
0.0
  9
$PELEVATION
 40
0.0
  9
$THICKNESS
 40
0.0
  9
$LIMCHECK
 70
     0
  9
$CHAMFERA
 40
0.0
  9
$CHAMFERB
 40
0.0
  9
$CHAMFERC
 40
0.0
  9
$CHAMFERD
 40
0.0
  9
$SKPOLY
 70
     0
  9
$TDCREATE
 40
2456678.430266204
  9
$TDUCREATE
 40
2456678.638603773
  9
$TDUPDATE
 40
2460147.368043982
  9
$TDUUPDATE
 40
2460147.534710648
  9
$TDINDWG
 40
18.4085831829
  9
$TDUSRTIMER
 40
18.4085826389
  9
$USRTIMER
 70
     1
  9
$ANGBASE
 50
0.0
  9
$ANGDIR
 70
     0
  9
$PDMODE
 70
     2
  9
$PDSIZE
 40
-2.0
  9
$PLINEWID
 40
0.0
  9
$SPLFRAME
 70
     0
  9
$SPLINETYPE
 70
     6
  9
$SPLINESEGS
 70
     8
  9
$HANDSEED
  5
26FBE1
  9
$SURFTAB1
 70
     6
  9
$SURFTAB2
 70
     6
  9
$SURFTYPE
 70
     6
  9
$SURFU
 70
     6
  9
$SURFV
 70
     6
  9
$UCSBASE
  2

  9
$UCSNAME
  2

  9
$UCSORG
 10
0.0
 20
0.0
 30
0.0
  9
$UCSXDIR
 10
1.0
 20
0.0
 30
0.0
  9
$UCSYDIR
 10
0.0
 20
1.0
 30
0.0
  9
$UCSORTHOREF
  2

  9
$UCSORTHOVIEW
 70
     0
  9
$UCSORGTOP
 10
0.0
 20
0.0
 30
0.0
  9
$UCSORGBOTTOM
 10
0.0
 20
0.0
 30
0.0
  9
$UCSORGLEFT
 10
0.0
 20
0.0
 30
0.0
  9
$UCSORGRIGHT
 10
0.0
 20
0.0
 30
0.0
  9
$UCSORGFRONT
 10
0.0
 20
0.0
 30
0.0
  9
$UCSORGBACK
 10
0.0
 20
0.0
 30
0.0
  9
$PUCSBASE
  2

  9
$PUCSNAME
  2

  9
$PUCSORG
 10
0.0
 20
0.0
 30
0.0
  9
$PUCSXDIR
 10
1.0
 20
0.0
 30
0.0
  9
$PUCSYDIR
 10
0.0
 20
1.0
 30
0.0
  9
$PUCSORTHOREF
  2

  9
$PUCSORTHOVIEW
 70
     0
  9
$PUCSORGTOP
 10
0.0
 20
0.0
 30
0.0
  9
$PUCSORGBOTTOM
 10
0.0
 20
0.0
 30
0.0
  9
$PUCSORGLEFT
 10
0.0
 20
0.0
 30
0.0
  9
$PUCSORGRIGHT
 10
0.0
 20
0.0
 30
0.0
  9
$PUCSORGFRONT
 10
0.0
 20
0.0
 30
0.0
  9
$PUCSORGBACK
 10
0.0
 20
0.0
 30
0.0
  9
$USERI1
 70
     0
  9
$USERI2
 70
     0
  9
$USERI3
 70
     0
  9
$USERI4
 70
     0
  9
$USERI5
 70
     0
  9
$USERR1
 40
0.0
  9
$USERR2
 40
0.0
  9
$USERR3
 40
0.0
  9
$USERR4
 40
0.0
  9
$USERR5
 40
0.0
  9
$WORLDVIEW
 70
     1
  9
$SHADEDGE
 70
     3
  9
$SHADEDIF
 70
    70
  9
$TILEMODE
 70
     1
  9
$MAXACTVP
 70
    16
  9
$PINSBASE
 10
0.0
 20
0.0
 30
0.0
  9
$PLIMCHECK
 70
     0
  9
$PEXTMIN
 10
0.0
 20
0.0
 30
0.0
  9
$PEXTMAX
 10
0.0
 20
0.0
 30
0.0
  9
$PLIMMIN
 10
0.0
 20
0.0
  9
$PLIMMAX
 10
12.0
 20
9.0
  9
$UNITMODE
 70
     0
  9
$VISRETAIN
 70
     0
  9
$PLINEGEN
 70
     1
  9
$PSLTSCALE
 70
     1
  9
$TREEDEPTH
 70
  3020
  9
$CMLSTYLE
  2
Standard
  9
$CMLJUST
 70
     0
  9
$CMLSCALE
 40
1.0
  9
$PROXYGRAPHICS
 70
     0
  9
$MEASUREMENT
 70
     0
  9
$CELWEIGHT
370
    18
  9
$ENDCAPS
280
     0
  9
$JOINSTYLE
280
     0
  9
$LWDISPLAY
290
     1
  9
$INSUNITS
 70
     1
  9
$HYPERLINKBASE
  1

  9
$STYLESHEET
  1
ACADLT.CTB
  9
$XEDIT
290
     1
  9
$CEPSNTYPE
380
     0
  9
$PSTYLEMODE
290
     1
  9
$FINGERPRINTGUID
  2
{D36D2517-C4B8-41DC-82A4-000A163ABD10}
  9
$VERSIONGUID
  2
{C96446C0-22F1-2948-8FC1-0049497CEF82}
  9
$EXTNAMES
290
     1
  9
$PSVPSCALE
 40
0.0
  9
$OLESTARTUP
290
     0
  9
$SORTENTS
280
   127
  9
$INDEXCTL
280
     0
  9
$HIDETEXT
280
     0
  9
$XCLIPFRAME
280
     2
  9
$HALOGAP
280
     0
  9
$OBSCOLOR
 70
   257
  9
$OBSLTYPE
280
     0
  9
$INTERSECTIONDISPLAY
280
     0
  9
$INTERSECTIONCOLOR
 70
   257
  9
$DIMASSOC
280
     1
  9
$PROJECTNAME
  1

  9
$CAMERADISPLAY
290
     0
  9
$LENSLENGTH
 40
50.0
  9
$CAMERAHEIGHT
 40
0.0
  9
$STEPSPERSEC
 40
2.0
  9
$STEPSIZE
 40
6.0
  9
$3DDWFPREC
 40
2.0
  9
$PSOLWIDTH
 40
0.25
  9
$PSOLHEIGHT
 40
4.0
  9
$LOFTANG1
 40
1.570796326794896
  9
$LOFTANG2
 40
1.570796326794896
  9
$LOFTMAG1
 40
0.0
  9
$LOFTMAG2
 40
0.0
  9
$LOFTPARAM
 70
     7
  9
$LOFTNORMALS
280
     1
  9
$LATITUDE
 40
37.795
  9
$LONGITUDE
 40
-122.394
  9
$NORTHDIRECTION
 40
0.0
  9
$TIMEZONE
 70
 -8000
  9
$LIGHTGLYPHDISPLAY
280
     1
  9
$TILEMODELIGHTSYNCH
280
     1
  9
$CMATERIAL
347
8AE
  9
$SOLIDHIST
280
     0
  9
$SHOWHIST
280
     1
  9
$DWFFRAME
280
     2
  9
$DGNFRAME
280
     0
  9
$REALWORLDSCALE
290
     1
  9
$INTERFERECOLOR
 62
     1
  9
$INTERFEREOBJVS
345
8D0
  9
$INTERFEREVPVS
346
8CD
  9
$CSHADOW
280
     0
  9
$SHADOWPLANELOCATION
 40
0.0
  0
ENDSEC
  0
SECTION
  2
CLASSES
  0
CLASS
  1
IMAGE
  2
AcDbRasterImage
  3
ISM
 90
     2175
 91
        0
280
     0
281
     1
  0
CLASS
  1
DICTIONARYVAR
  2
AcDbDictionaryVar
  3
ObjectDBX Classes
 90
        0
 91
       15
280
     0
281
     0
  0
CLASS
  1
RASTERVARIABLES
  2
AcDbRasterVariables
  3
ISM
 90
        0
 91
        0
280
     0
281
     0
  0
CLASS
  1
IMAGEDEF
  2
AcDbRasterImageDef
  3
ISM
 90
        0
 91
        0
280
     0
281
     0
  0
CLASS
  1
IMAGEDEF_REACTOR
  2
AcDbRasterImageDefReactor
  3
ISM
 90
        1
 91
        0
280
     0
281
     0
  0
CLASS
  1
IDBUFFER
  2
AcDbIdBuffer
  3
ObjectDBX Classes
 90
        0
 91
        0
280
     0
281
     0
  0
CLASS
  1
SPATIAL_FILTER
  2
AcDbSpatialFilter
  3
ObjectDBX Classes
 90
        0
 91
        0
280
     0
281
     0
  0
CLASS
  1
SORTENTSTABLE
  2
AcDbSortentsTable
  3
ObjectDBX Classes
 90
        0
 91
        1
280
     0
281
     0
  0
CLASS
  1
LAYER_INDEX
  2
AcDbLayerIndex
  3
ObjectDBX Classes
 90
        0
 91
        0
280
     0
281
     0
  0
CLASS
  1
SPATIAL_INDEX
  2
AcDbSpatialIndex
  3
ObjectDBX Classes
 90
        0
 91
        0
280
     0
281
     0
  0
CLASS
  1
OBJECT_PTR
  2
CAseDLPNTableRecord
  3
ASE-LPNTableRecord
 90
        1
 91
        0
280
     0
281
     0
  0
CLASS
  1
PLOTSETTINGS
  2
AcDbPlotSettings
  3
ObjectDBX Classes
 90
        0
 91
        1
280
     0
281
     0
  0
CLASS
  1
ACDBDICTIONARYWDFLT
  2
AcDbDictionaryWithDefault
  3
ObjectDBX Classes
 90
        0
 91
        1
280
     0
281
     0
  0
CLASS
  1
WIPEOUT
  2
AcDbWipeout
  3
WipeOut|Product Desc: Object Enabler for WipeOut entity | Company: Autodesk, Inc. | WEB Address: www.autodesk.com
 90
     2175
 91
        0
280
     0
281
     1
  0
CLASS
  1
WIPEOUTVARIABLES
  2
AcDbWipeoutVariables
  3
"WipeOut|Product Desc:     WipeOut Dbx Application|Company:          Autodesk, Inc.|WEB Address:      www.autodesk.com"
 90
        0
 91
        1
280
     0
281
     0
  0
CLASS
  1
RTEXT
  2
RText
  3
RText|AutoCAD Express Tool|expresstools@autodesk.com
 90
     3071
 91
        0
280
     0
281
     1
  0
CLASS
  1
ARCALIGNEDTEXT
  2
AcDbArcAlignedText
  3
ATEXT|AutoCAD Express Tool|expresstools@autodesk.com
 90
        0
 91
        0
280
     0
281
     1
  0
CLASS
  1
MATERIAL
  2
AcDbMaterial
  3
ObjectDBX Classes
 90
     1153
 91
        3
280
     0
281
     0
  0
CLASS
  1
VISUALSTYLE
  2
AcDbVisualStyle
  3
ObjectDBX Classes
 90
     4095
 91
       24
280
     0
281
     0
  0
CLASS
  1
TABLESTYLE
  2
AcDbTableStyle
  3
ObjectDBX Classes
 90
     4095
 91
        1
280
     0
281
     0
  0
CLASS
  1
SCALE
  2
AcDbScale
  3
ObjectDBX Classes
 90
     1153
 91
       17
280
     0
281
     0
  0
CLASS
  1
MLEADERSTYLE
  2
AcDbMLeaderStyle
  3
ACDB_MLEADERSTYLE_CLASS
 90
     4095
 91
        1
280
     0
281
     0
  0
CLASS
  1
ACDBSECTIONVIEWSTYLE
  2
AcDbSectionViewStyle
  3
ObjectDBX Classes
 90
     1025
 91
        1
280
     0
281
     0
  0
CLASS
  1
ACDBDETAILVIEWSTYLE
  2
AcDbDetailViewStyle
  3
ObjectDBX Classes
 90
     1025
 91
        1
280
     0
281
     0
  0
CLASS
  1
ACARRAYJIGENTITY
  2
AcArrayJigEntity
  3
ACAD_ARRAY
 90
      129
 91
        0
280
     0
281
     1
  0
CLASS
  1
ACDBASSOCNETWORK
  2
AcDbAssocNetwork
  3
ObjectDBX Classes
 90
     1025
 91
        0
280
     0
281
     0
  0
CLASS
  1
ACDBASSOCACTION
  2
AcDbAssocAction
  3
ObjectDBX Classes
 90
     1025
 91
        0
280
     0
281
     0
  0
CLASS
  1
ACDBASSOCARRAYACTIONBODY
  2
AcDbAssocArrayActionBody
  3
ObjectDBX Classes
 90
     1025
 91
        0
280
     0
281
     0
  0
CLASS
  1
ACDBASSOCVERTEXACTIONPARAM
  2
AcDbAssocVertexActionParam
  3
ObjectDBX Classes
 90
     1025
 91
        0
280
     0
281
     0
  0
CLASS
  1
ACDBASSOCDEPENDENCY
  2
AcDbAssocDependency
  3
ObjectDBX Classes
 90
     1025
 91
        0
280
     0
281
     0
  0
CLASS
  1
ACDBASSOCARRAYRECTANGULARPARAMETERS
  2
AcDbAssocArrayRectangularParameters
  3
ObjectDBX Classes
 90
     1025
 91
        0
280
     0
281
     0
  0
CLASS
  1
ACDB_DYNAMICBLOCKPURGEPREVENTER_VERSION
  2
AcDbDynamicBlockPurgePreventer
  3
ObjectDBX Classes
 90
     1153
 91
        0
280
     0
281
     0
  0
CLASS
  1
MULTILEADER
  2
AcDbMLeader
  3
ACDB_MLEADER_CLASS
 90
     1025
 91
        0
280
     0
281
     1
  0
CLASS
  1
ACAD_TABLE
  2
AcDbTable
  3
ObjectDBX Classes
 90
     1025
 91
        0
280
     0
281
     1
  0
CLASS
  1
ACAD_EVALUATION_GRAPH
  2
AcDbEvalGraph
  3
ObjectDBX Classes
 90
     1153
 91
        0
280
     0
281
     0
  0
CLASS
  1
ACAECUSTOBJ
  2
AcAeEditorObj
  3
AcAeEditorObj
 90
     1024
 91
        0
280
     0
281
     0
  0
CLASS
  1
ACDB_MTEXTOBJECTCONTEXTDATA_CLASS
  2
AcDbMTextObjectContextData
  3
ObjectDBX Classes
 90
     1153
 91
        0
280
     0
281
     0
  0
CLASS
  1
ACDB_TEXTOBJECTCONTEXTDATA_CLASS
  2
AcDbTextObjectContextData
  3
ObjectDBX Classes
 90
     1153
 91
        0
280
     0
281
     0
  0
CLASS
  1
TABLECONTENT
  2
AcDbTableContent
  3
ObjectDBX Classes
 90
     1152
 91
        0
280
     0
281
     0
  0
CLASS
  1
TABLEGEOMETRY
  2
AcDbTableGeometry
  3
ObjectDBX Classes
 90
     1152
 91
        0
280
     0
281
     0
  0
CLASS
  1
DBCOLOR
  2
AcDbColor
  3
ObjectDBX Classes
 90
        0
 91
        1
280
     0
281
     0
  0
CLASS
  1
ARC_DIMENSION
  2
AcDbArcDimension
  3
ObjectDBX Classes
 90
     1025
 91
        0
280
     0
281
     1
  0
CLASS
  1
ACDB_ALDIMOBJECTCONTEXTDATA_CLASS
  2
AcDbAlignedDimensionObjectContextData
  3
ObjectDBX Classes
 90
     1153
 91
        0
280
     0
281
     0
  0
CLASS
  1
DIMASSOC
  2
AcDbDimAssoc
  3
"AcDbDimAssoc|Product Desc:     AcDim ARX App For Dimension|Company:          Autodesk, Inc.|WEB Address:      www.autodesk.com"
 90
        0
 91
        0
280
     0
281
     0
  0
CLASS
  1
BLOCKLINEARPARAMETER
  2
AcDbBlockLinearParameter
  3
ObjectDBX Classes
 90
     1153
 91
        0
280
     0
281
     0
  0
CLASS
  1
BLOCKLINEARGRIP
  2
AcDbBlockLinearGrip
  3
ObjectDBX Classes
 90
     1153
 91
        0
280
     0
281
     0
  0
CLASS
  1
BLOCKGRIPLOCATIONCOMPONENT
  2
AcDbBlockGripExpr
  3
ObjectDBX Classes
 90
     1153
 91
        0
280
     0
281
     0
  0
CLASS
  1
LINEARGRIPENTITY
  2
AcDbBlockLinearGripEntity
  3
ObjectDBX Classes
 90
     1025
 91
        0
280
     0
281
     1
  0
CLASS
  1
ACAEEEMGROBJ
  2
AcAeEEMgrObj
  3
AcAeEEMgrObj
 90
     1024
 91
        0
280
     0
281
     0
  0
CLASS
  1
LINEARPARAMETERENTITY
  2
AcDbBlockLinearParameterEntity
  3
ObjectDBX Classes
 90
     1025
 91
        0
280
     0
281
     1
  0
CLASS
  1
BLOCKSTRETCHACTION
  2
AcDbBlockStretchAction
  3
ObjectDBX Classes
 90
     1153
 91
        0
280
     0
281
     0
  0
CLASS
  1
STRETCHACTIONENTITY
  2
AcDbBlockStretchActionEntity
  3
ObjectDBX Classes
 90
     1025
 91
        0
280
     0
281
     1
  0
CLASS
  1
ACDB_BLOCKREPRESENTATION_DATA
  2
AcDbBlockRepresentationData
  3
ObjectDBX Classes
 90
     1153
 91
        0
280
     0
281
     0
  0
CLASS
  1
ACDBPOINTCLOUDCOLORMAP
  2
AcDbPointCloudColorMap
  3
AcDbPointCloudObj
 90
     1025
 91
        1
280
     0
281
     0
  0
CLASS
  1
BREAKDATA
  2
AcDbBreakData
  3
ObjectDBX Classes
 90
     1024
 91
        0
280
     0
281
     0
  0
CLASS
  1
SOLID_BACKGROUND
  2
AcDbSolidBackground
  3
SCENEOE
 90
     4095
 91
        0
280
     0
281
     0
  0
CLASS
  1
NPOCOLLECTION
  2
AcDbImpNonPersistentObjectsCollection
  3
ObjectDBX Classes
 90
     1153
 91
        0
280
     0
281
     0
  0
CLASS
  1
BLOCKLOOKUPPARAMETER
  2
AcDbBlockLookupParameter
  3
ObjectDBX Classes
 90
     1153
 91
        0
280
     0
281
     0
  0
CLASS
  1
BLOCKLOOKUPGRIP
  2
AcDbBlockLookupGrip
  3
ObjectDBX Classes
 90
     1153
 91
        0
280
     0
281
     0
  0
CLASS
  1
LOOKUPGRIPENTITY
  2
AcDbBlockLookupGripEntity
  3
ObjectDBX Classes
 90
     1025
 91
        0
280
     0
281
     1
  0
CLASS
  1
LOOKUPPARAMETERENTITY
  2
AcDbBlockLookupParameterEntity
  3
ObjectDBX Classes
 90
     1025
 91
        0
280
     0
281
     1
  0
CLASS
  1
BLOCKLOOKUPACTION
  2
AcDbBlockLookupAction
  3
ObjectDBX Classes
 90
     1153
 91
        0
280
     0
281
     0
  0
CLASS
  1
LOOKUPACTIONENTITY
  2
AcDbBlockLookupActionEntity
  3
ObjectDBX Classes
 90
     1025
 91
        0
280
     0
281
     1
  0
CLASS
  1
FIELD
  2
AcDbField
  3
ObjectDBX Classes
 90
     1152
 91
        0
280
     0
281
     0
  0
CLASS
  1
FIELDLIST
  2
AcDbFieldList
  3
ObjectDBX Classes
 90
     1152
 91
        1
280
     0
281
     0
  0
CLASS
  1
AcDbCenterLineActionBody
  2
AcDbCenterLineActionBody
  3
AcDbSmartCenter
 90
     1153
 91
        0
280
     0
281
     0
  0
CLASS
  1
ACDBASSOCEDGEACTIONPARAM
  2
AcDbAssocEdgeActionParam
  3
ObjectDBX Classes
 90
     1025
 91
        0
280
     0
281
     0
  0
CLASS
  1
ACDBASSOCGEOMDEPENDENCY
  2
AcDbAssocGeomDependency
  3
ObjectDBX Classes
 90
     1025
 91
        0
280
     0
281
     0
  0
CLASS
  1
AcDbCenterMarkActionBody
  2
AcDbCenterMarkActionBody
  3
AcDbSmartCenter
 90
     1153
 91
        0
280
     0
281
     0
  0
CLASS
  1
CELLSTYLEMAP
  2
AcDbCellStyleMap
  3
ObjectDBX Classes
 90
     1152
 91
        2
280
     0
281
     0
  0
ENDSEC
  0
SECTION
  2
TABLES
  0
TABLE
  2
VPORT
  5
7
330
0
100
AcDbSymbolTable
 70
     1
  0
VPORT
  5
15
330
7
100
AcDbSymbolTableRecord
100
AcDbViewportTableRecord
  2
*ACTIVE
 70
     0
 10
0.0
 20
0.0
 11
1.0
 21
1.0
 12
5884.481190805581
 22
-1205.126396298896
 13
0.0
 23
0.0
 14
1.0
 24
1.0
 15
0.0
 25
0.0
 16
0.0
 26
0.0
 36
104.3856760867504
 17
-3057.462273254971
 27
678.4731221430277
 37
0.0
 40
567.478531889694
 41
1.835734870317002
 42
50.0
 43
0.0
 44
0.0
 50
0.0
 51
0.0
 71
     0
 72
   100
 73
     1
 74
     0
 75
     0
 76
     0
 77
     0
 78
     0
281
     0
 65
     0
110
0.0
120
0.0
130
0.0
111
1.0
121
0.0
131
0.0
112
0.0
122
1.0
132
0.0
 79
     0
146
0.0
348
8CC
 60
     3
 61
     5
292
     1
282
     1
141
0.0
142
0.0
 63
   250
421
  3355443
1001
ACAD_NAV_VCDISPLAY
1070
     3
  0
ENDTAB
  0
TABLE
  2
LTYPE
  5
4
330
0
100
AcDbSymbolTable
 70
     1
  0
LTYPE
  5
11
330
4
100
AcDbSymbolTableRecord
100
AcDbLinetypeTableRecord
  2
ByBlock
 70
     0
  3

 72
    65
 73
     0
 40
0.0
  0
LTYPE
  5
12
330
4
100
AcDbSymbolTableRecord
100
AcDbLinetypeTableRecord
  2
ByLayer
 70
     0
  3

 72
    65
 73
     0
 40
0.0
  0
LTYPE
  5
13
330
4
100
AcDbSymbolTableRecord
100
AcDbLinetypeTableRecord
  2
Continuous
 70
     0
  3
Solid line
 72
    65
 73
     0
 40
0.0
  0
ENDTAB
  0
TABLE
  2
LAYER
  5
2
102
{ACAD_XDICTIONARY
360
11AE
102
}
330
0
100
AcDbSymbolTable
 70
     3
  0
LAYER
  5
14
102
{ACAD_XDICTIONARY
360
EDD
102
}
330
2
100
AcDbSymbolTableRecord
100
AcDbLayerTableRecord
  2
0
 70
     0
 62
    12
  6
Continuous
370
    30
390
1D
347
8BE
348
0
  0
LAYER
  5
966
102
{ACAD_XDICTIONARY
360
245C61
102
}
330
2
100
AcDbSymbolTableRecord
100
AcDbLayerTableRecord
  2
Defpoints
 70
     0
 62
     7
  6
Continuous
290
     0
370
    -3
390
1D
347
8BE
348
0
  0
LAYER
  5
22E2
102
{ACAD_XDICTIONARY
360
187404
102
}
330
2
100
AcDbSymbolTableRecord
100
AcDbLayerTableRecord
  2
1
 70
     0
 62
     7
  6
Continuous
370
    25
390
1D
347
8BE
348
0
1001
AcAecLayerStandard
1000

1000

1001
AcCmTransparency
1071
        0
  0
ENDTAB
  0
TABLE
  2
STYLE
  5
3
330
0
100
AcDbSymbolTable
 70
     2
  0
STYLE
  5
17
330
3
100
AcDbSymbolTableRecord
100
AcDbTextStyleTableRecord
  2
Standard
 70
     0
 40
0.0
 41
1.0
 50
0.0
 71
     0
 42
2.0
  3
ARIALUNI.ttf
  4

1001
ACAD
1000
@Arial Unicode MS
1071
       34
  0
STYLE
  5
1897EC
330
3
100
AcDbSymbolTableRecord
100
AcDbTextStyleTableRecord
  2
ARIAL
 70
     0
 40
1.0
 41
1.0
 50
0.0
 71
     0
 42
2.0
  3
arial.ttf
  4

1001
AcadAnnotative
1000
AnnotativeData
1002
{
1070
     1
1070
     0
1002
}
1001
ACAD
1000
Arial
1071
       34
  0
ENDTAB
  0
TABLE
  2
VIEW
  5
5
330
0
100
AcDbSymbolTable
 70
     0
  0
ENDTAB
  0
TABLE
  2
UCS
  5
6
330
0
100
AcDbSymbolTable
 70
     0
  0
ENDTAB
  0
TABLE
  2
APPID
  5
8
330
0
100
AcDbSymbolTable
 70
    23
  0
APPID
  5
16
330
8
100
AcDbSymbolTableRecord
100
AcDbRegAppTableRecord
  2
ACAD
 70
     0
  0
APPID
  5
8FD
330
8
100
AcDbSymbolTableRecord
100
AcDbRegAppTableRecord
  2
ACAD_EXEMPT_FROM_CAD_STANDARDS
 70
     0
  0
APPID
  5
943
330
8
100
AcDbSymbolTableRecord
100
AcDbRegAppTableRecord
  2
DCO15
 70
     0
  0
APPID
  5
945
330
8
100
AcDbSymbolTableRecord
100
AcDbRegAppTableRecord
  2
ACAD_NAV_VCDISPLAY
 70
     0
  0
APPID
  5
AFA
330
8
100
AcDbSymbolTableRecord
100
AcDbRegAppTableRecord
  2
AcadAnnoMonitorAlertIconDisabled
 70
     0
  0
APPID
  5
BC8
330
8
100
AcDbSymbolTableRecord
100
AcDbRegAppTableRecord
  2
ACAD_DSTYLE_DIMJAG
 70
     0
  0
APPID
  5
BC9
330
8
100
AcDbSymbolTableRecord
100
AcDbRegAppTableRecord
  2
ACAD_DSTYLE_DIMTALN
 70
     0
  0
APPID
  5
E01
330
8
100
AcDbSymbolTableRecord
100
AcDbRegAppTableRecord
  2
ACAD_PSEXT
 70
     0
  0
APPID
  5
1F7B
330
8
100
AcDbSymbolTableRecord
100
AcDbRegAppTableRecord
  2
ACAD_DSTYLE_DIMBREAK
 70
     0
  0
APPID
  5
2231
330
8
100
AcDbSymbolTableRecord
100
AcDbRegAppTableRecord
  2
AcDbDynamicBlockTrueName2
 70
     0
  0
APPID
  5
2232
330
8
100
AcDbSymbolTableRecord
100
AcDbRegAppTableRecord
  2
AcDbDynamicBlockGUID
 70
     0
  0
APPID
  5
2267
330
8
100
AcDbSymbolTableRecord
100
AcDbRegAppTableRecord
  2
AcAecLayerStandard
 70
     0
  0
APPID
  5
2268
330
8
100
AcDbSymbolTableRecord
100
AcDbRegAppTableRecord
  2
AcCmTransparency
 70
     0
  0
APPID
  5
9399
330
8
100
AcDbSymbolTableRecord
100
AcDbRegAppTableRecord
  2
GradientColor1ACI
 70
     0
  0
APPID
  5
939A
330
8
100
AcDbSymbolTableRecord
100
AcDbRegAppTableRecord
  2
GradientColor2ACI
 70
     0
  0
APPID
  5
2AD42
330
8
100
AcDbSymbolTableRecord
100
AcDbRegAppTableRecord
  2
ACAUTHENVIRON
 70
     0
  0
APPID
  5
2AD46
330
8
100
AcDbSymbolTableRecord
100
AcDbRegAppTableRecord
  2
AcDbDynamicBlockTrueName
 70
     0
  0
APPID
  5
48B98
330
8
100
AcDbSymbolTableRecord
100
AcDbRegAppTableRecord
  2
AcadAnnotative
 70
     0
  0
APPID
  5
E4A07
330
8
100
AcDbSymbolTableRecord
100
AcDbRegAppTableRecord
  2
ACAD_DSTYLE_DIMRADIAL_EXTENSION
 70
     0
  0
APPID
  5
19B4F7
330
8
100
AcDbSymbolTableRecord
100
AcDbRegAppTableRecord
  2
AcDbBlockRepETag
 70
     0
  0
APPID
  5
19B4FA
330
8
100
AcDbSymbolTableRecord
100
AcDbRegAppTableRecord
  2
AcDbBlockRepBTag
 70
     0
  0
APPID
  5
1EBD0F
330
8
100
AcDbSymbolTableRecord
100
AcDbRegAppTableRecord
  2
AcadAnnoAV
 70
     0
  0
APPID
  5
228DC0
330
8
100
AcDbSymbolTableRecord
100
AcDbRegAppTableRecord
  2
HATCHBACKGROUNDCOLOR
 70
     0
  0
ENDTAB
  0
TABLE
  2
DIMSTYLE
  5
9
330
0
100
AcDbSymbolTable
 70
     2
100
AcDbDimStyleTable
 71
     2
340
1F7C
340
18
  0
DIMSTYLE
105
18
330
9
100
AcDbSymbolTableRecord
100
AcDbDimStyleTableRecord
  2
Standard
 70
     0
140
2.0
340
1897EC
1001
ACAD_DSTYLE_DIMJAG
1070
   388
1040
1.5
1001
ACAD_DSTYLE_DIMTALN
1070
   392
1070
     0
  0
DIMSTYLE
105
1F7C
330
9
100
AcDbSymbolTableRecord
100
AcDbDimStyleTableRecord
  2
ONE
 70
     0
 41
0.5
 42
1.5
 43
6.0
 73
     0
 74
     0
 78
     3
140
1.0
147
0.78125
175
     1
176
   256
177
   256
178
   256
277
     4
278
     0
279
     1
340
1897EC
345
12
346
12
347
12
371
    25
372
    25
1001
ACAD_DSTYLE_DIMBREAK
1070
   391
1040
1.5
1001
ACAD_DSTYLE_DIMJAG
1070
   388
1040
1.5
1001
ACAD_DSTYLE_DIMTALN
1070
   392
1070
     0
  0
ENDTAB
  0
TABLE
  2
BLOCK_RECORD
  5
1
330
0
100
AcDbSymbolTable
 70
     0
  0
BLOCK_RECORD
  5
A
102
{ACAD_XDICTIONARY
360
9AF
102
}
330
1
100
AcDbSymbolTableRecord
100
AcDbBlockTableRecord
  2
*MODEL_SPACE
340
20
 70
     0
280
     1
281
     0
  0
BLOCK_RECORD
  5
26E9FA
330
1
100
AcDbSymbolTableRecord
100
AcDbBlockTableRecord
  2
*Paper_Space
340
26E9FB
 70
     0
280
     1
281
     0
  0
ENDTAB
  0
ENDSEC
  0
SECTION
  2
BLOCKS
  0
BLOCK
  5
D
330
A
100
AcDbEntity
  8
0
100
AcDbBlockBegin
  2
*MODEL_SPACE
 70
     0
 10
0.0
 20
0.0
 30
0.0
  3
*MODEL_SPACE
  1

  0
ENDBLK
  5
E
330
A
100
AcDbEntity
  8
0
100
AcDbBlockEnd
  0
BLOCK
  5
26E9FC
330
26E9FA
100
AcDbEntity
 67
     1
  8
0
370
    18
100
AcDbBlockBegin
  2
*Paper_Space
 70
     0
 10
0.0
 20
0.0
 30
0.0
  3
*Paper_Space
  1

  0
ENDBLK
  5
26E9FD
330
26E9FA
100
AcDbEntity
 67
     1
  8
0
370
    18
100
AcDbBlockEnd
  0
ENDSEC
  0
SECTION
  2
ENTITIES
  0
LWPOLYLINE
  5
26F0DC
330
A
100
AcDbEntity
  8
1
  6
Continuous
 62
     7
100
AcDbPolyline
 90
        4
 70
     1
 43
0.0
 10
2437.653816541287
 20
-465.7976188581876
 10
3216.351773290109
 20
-465.797618858187
 10
3216.351773290109
 20
-587.5300924659923
 10
2437.653816541287
 20
-587.5300924659929
  0
TEXT
  5
26F587
330
A
100
AcDbEntity
  8
1
  6
Continuous
 62
     7
100
AcDbText
 10
2451.883431732892
 20
-494.5841978993168
 30
0.0
 40
13.5393362457173
  1
SPECTRA
  7
ARIAL
 72
     4
 11
2496.56508845648
 21
-487.8145297764581
 31
0.0
100
AcDbText
  0
TEXT
  5
26F588
102
{ACAD_XDICTIONARY
360
26F589
102
}
330
A
100
AcDbEntity
  8
1
  6
Continuous
 62
     7
100
AcDbText
 10
2480.023845221745
 20
-548.1091804273993
 30
0.0
 40
1.25
  1
SECTION VIEW
  7
ARIAL
100
AcDbText
1001
AcadAnnotative
1000
AnnotativeData
1002
{
1070
     1
1070
     0
1002
}
  0
TEXT
  5
26F58C
102
{ACAD_XDICTIONARY
360
26F58D
102
}
330
A
100
AcDbEntity
  8
1
  6
Continuous
 62
     7
100
AcDbText
 10
2477.443045810698
 20
-545.4875457139993
 30
0.0
 40
2.5
  1
TYPE WP1
  7
ARIAL
100
AcDbText
1001
AcadAnnotative
1000
AnnotativeData
1002
{
1070
     1
1070
     0
1002
}
1001
AcDbBlockRepETag
1070
     1
1071
       25
1005
0
  0
LWPOLYLINE
  5
26F590
330
A
100
AcDbEntity
  8
1
  6
Continuous
 62
     7
100
AcDbPolyline
 90
       13
 70
     1
 43
0.0
 10
3041.611511787442
 20
-551.6462704820321
 10
3040.887804851732
 20
-551.6462704820321
 10
3040.913006286824
 20
-551.5522179208296
 10
3040.412684127461
 20
-551.552207900568
 10
3040.437887471175
 20
-551.6462704820321
 10
3039.714140198713
 20
-551.6462704820321
 10
3039.755958090479
 20
-551.4901987045126
 10
3039.630891865298
 20
-551.3410743083726
 10
3039.630891865298
 20
-551.7163245166906
 10
3040.741133033908
 20
-551.7163245166906
 10
3041.694768011047
 20
-551.7163245166906
 10
3041.694768011047
 20
-551.3410704911301
 10
3041.569684608274
 20
-551.4901691208831
  0
TEXT
  5
26F591
102
{ACAD_XDICTIONARY
360
26F592
102
}
330
A
100
AcDbEntity
  8
1
  6
Continuous
 62
     7
100
AcDbText
 10
3030.086998415967
 20
-545.4875457139993
 30
0.0
 40
2.5
  1
TYPE WP24
  7
ARIAL
100
AcDbText
1001
AcadAnnotative
1000
AnnotativeData
1002
{
1070
     1
1070
     0
1002
}
1001
AcDbBlockRepETag
1070
     1
1071
       25
1005
0
  0
LWPOLYLINE
  5
26F595
330
A
100
AcDbEntity
  8
1
  6
Continuous
 62
     7
100
AcDbPolyline
 90
       19
 70
     1
 43
0.0
 10
2519.566129892647
 20
-551.7163246285239
 10
2519.863077858542
 20
-551.7163246285239
 10
2519.863077858542
 20
-551.3410703792969
 10
2519.737994097904
 20
-551.4901691432498
 10
2519.779821532775
 20
-551.6462713319655
 10
2519.196325714802
 20
-551.6462702807323
 10
2519.238145038034
 20
-551.4901988275295
 10
2519.113077858542
 20
-551.3410744202058
 10
2519.113077858542
 20
-551.7163246285239
 10
2519.409525815078
 20
-551.7163246285239
 42
-0.4142162126630426
 10
2519.456556799531
 20
-551.763356038545
 10
2519.456556799531
 20
-552.3471066574551
 10
2519.36274436674
 20
-552.2532942246647
 10
2519.36274436674
 20
-552.3417415230985
 10
2519.487827650224
 20
-552.4668250451602
 10
2519.612911052997
 20
-552.3417416423874
 10
2519.612911052997
 20
-552.253294463242
 10
2519.519098500917
 20
-552.3471070153216
 10
2519.519098500917
 20
-551.763356038545
 42
-0.4142136762958529
  0
TEXT
  5
26F596
102
{ACAD_XDICTIONARY
360
26F597
102
}
330
A
100
AcDbEntity
  8
1
  6
Continuous
 62
     7
100
AcDbText
 10
2509.321836193993
 20
-545.4875457139993
 30
0.0
 40
2.5
  1
TYPE WP1A
  7
ARIAL
100
AcDbText
1001
AcadAnnotative
1000
AnnotativeData
1002
{
1070
     1
1070
     0
1002
}
1001
AcDbBlockRepETag
1070
     1
1071
       25
1005
0
  0
TEXT
  5
26F59A
102
{ACAD_XDICTIONARY
360
26F59B
102
}
330
A
100
AcDbEntity
  8
1
  6
Continuous
 62
     7
100
AcDbText
 10
3064.096761471899
 20
-545.4875457139993
 30
0.0
 40
2.5
  1
TYPE WP24A
  7
ARIAL
100
AcDbText
1001
AcadAnnotative
1000
AnnotativeData
1002
{
1070
     1
1070
     0
1002
}
1001
AcDbBlockRepETag
1070
     1
1071
       25
1005
0
  0
TEXT
  5
26F59E
102
{ACAD_XDICTIONARY
360
26F59F
102
}
330
A
100
AcDbEntity
  8
1
  6
Continuous
 62
     7
100
AcDbText
 10
2544.337497348064
 20
-545.4875457139993
 30
0.0
 40
2.5
  1
TYPE WP2
  7
ARIAL
100
AcDbText
1001
AcadAnnotative
1000
AnnotativeData
1002
{
1070
     1
1070
     0
1002
}
1001
AcDbBlockRepETag
1070
     1
1071
       25
1005
0
  0
TEXT
  5
26F5A6
102
{ACAD_XDICTIONARY
360
26F5A7
102
}
330
A
100
AcDbEntity
  8
1
  6
Continuous
 62
     7
100
AcDbText
 10
2576.948821841916
 20
-545.4875457139993
 30
0.0
 40
2.5
  1
TYPE WP2C
  7
ARIAL
100
AcDbText
1001
AcadAnnotative
1000
AnnotativeData
1002
{
1070
     1
1070
     0
1002
}
1001
AcDbBlockRepETag
1070
     1
1071
       25
1005
0
  0
TEXT
  5
26F5AE
102
{ACAD_XDICTIONARY
360
26F5AF
102
}
330
A
100
AcDbEntity
  8
1
  6
Continuous
 62
     7
100
AcDbText
 10
2612.091078512321
 20
-545.4875457139993
 30
0.0
 40
2.5
  1
TYPE WP2D
  7
ARIAL
100
AcDbText
1001
AcadAnnotative
1000
AnnotativeData
1002
{
1070
     1
1070
     0
1002
}
1001
AcDbBlockRepETag
1070
     1
1071
       25
1005
0
  0
TEXT
  5
26F5B2
102
{ACAD_XDICTIONARY
360
26F5B3
102
}
330
A
100
AcDbEntity
  8
1
  6
Continuous
 62
     7
100
AcDbText
 10
2646.914697240386
 20
-545.4875457139993
 30
0.0
 40
2.5
  1
TYPE WP2J
  7
ARIAL
100
AcDbText
1001
AcadAnnotative
1000
AnnotativeData
1002
{
1070
     1
1070
     0
1002
}
1001
AcDbBlockRepETag
1070
     1
1071
       25
1005
0
  0
TEXT
  5
26F5B6
102
{ACAD_XDICTIONARY
360
26F5B7
102
}
330
A
100
AcDbEntity
  8
1
  6
Continuous
 62
     7
100
AcDbText
 10
2680.123201055379
 20
-545.4875457139993
 30
0.0
 40
2.5
  1
TYPE WP2JT
  7
ARIAL
100
AcDbText
1001
AcadAnnotative
1000
AnnotativeData
1002
{
1070
     1
1070
     0
1002
}
1001
AcDbBlockRepETag
1070
     1
1071
       25
1005
0
  0
TEXT
  5
26F5BA
102
{ACAD_XDICTIONARY
360
26F5BB
102
}
330
A
100
AcDbEntity
  8
1
  6
Continuous
 62
     7
100
AcDbText
 10
2715.441356616086
 20
-545.4875457139993
 30
0.0
 40
2.5
  1
TYPE WP2T
  7
ARIAL
100
AcDbText
1001
AcadAnnotative
1000
AnnotativeData
1002
{
1070
     1
1070
     0
1002
}
1001
AcDbBlockRepETag
1070
     1
1071
       25
1005
0
  0
TEXT
  5
26F5BF
102
{ACAD_XDICTIONARY
360
26F5C0
102
}
330
A
100
AcDbEntity
  8
1
  6
Continuous
 62
     7
100
AcDbText
 10
2749.07038361887
 20
-545.4875457139993
 30
0.0
 40
2.5
  1
TYPE WP3C
  7
ARIAL
100
AcDbText
1001
AcadAnnotative
1000
AnnotativeData
1002
{
1070
     1
1070
     0
1002
}
1001
AcDbBlockRepETag
1070
     1
1071
       25
1005
0
  0
TEXT
  5
26F5C3
102
{ACAD_XDICTIONARY
360
26F5C4
102
}
330
A
100
AcDbEntity
  8
1
  6
Continuous
 62
     7
100
AcDbText
 10
2784.310032247173
 20
-545.4875457139993
 30
0.0
 40
2.5
  1
TYPE WP3J
  7
ARIAL
100
AcDbText
1001
AcadAnnotative
1000
AnnotativeData
1002
{
1070
     1
1070
     0
1002
}
1001
AcDbBlockRepETag
1070
     1
1071
       25
1005
0
  0
TEXT
  5
26F5C7
102
{ACAD_XDICTIONARY
360
26F5C8
102
}
330
A
100
AcDbEntity
  8
1
  6
Continuous
 62
     7
100
AcDbText
 10
2817.556777341017
 20
-545.4875457139993
 30
0.0
 40
2.5
  1
TYPE WP3JT
  7
ARIAL
100
AcDbText
1001
AcadAnnotative
1000
AnnotativeData
1002
{
1070
     1
1070
     0
1002
}
1001
AcDbBlockRepETag
1070
     1
1071
       25
1005
0
  0
TEXT
  5
26F5CB
102
{ACAD_XDICTIONARY
360
26F5CC
102
}
330
A
100
AcDbEntity
  8
1
  6
Continuous
 62
     7
100
AcDbText
 10
2853.29209526527
 20
-545.4875457139993
 30
0.0
 40
2.5
  1
TYPE WP3SP
  7
ARIAL
100
AcDbText
1001
AcadAnnotative
1000
AnnotativeData
1002
{
1070
     1
1070
     0
1002
}
1001
AcDbBlockRepETag
1070
     1
1071
       25
1005
0
  0
TEXT
  5
26F5CF
102
{ACAD_XDICTIONARY
360
26F5D0
102
}
330
A
100
AcDbEntity
  8
1
  6
Continuous
 62
     7
100
AcDbText
 10
2890.371635185151
 20
-545.4875457139993
 30
0.0
 40
2.5
  1
TYPE WP3T
  7
ARIAL
100
AcDbText
1001
AcadAnnotative
1000
AnnotativeData
1002
{
1070
     1
1070
     0
1002
}
1001
AcDbBlockRepETag
1070
     1
1071
       25
1005
0
  0
TEXT
  5
26F5D3
102
{ACAD_XDICTIONARY
360
26F5D4
102
}
330
A
100
AcDbEntity
  8
1
  6
Continuous
 62
     7
100
AcDbText
 10
2925.478490345243
 20
-545.4875457139993
 30
0.0
 40
2.5
  1
TYPE WP4C
  7
ARIAL
100
AcDbText
1001
AcadAnnotative
1000
AnnotativeData
1002
{
1070
     1
1070
     0
1002
}
1001
AcDbBlockRepETag
1070
     1
1071
       25
1005
0
  0
TEXT
  5
26F5D7
102
{ACAD_XDICTIONARY
360
26F5D8
102
}
330
A
100
AcDbEntity
  8
1
  6
Continuous
 62
     7
100
AcDbText
 10
2961.095539130742
 20
-545.4875457139993
 30
0.0
 40
2.5
  1
TYPE WP4J
  7
ARIAL
100
AcDbText
1001
AcadAnnotative
1000
AnnotativeData
1002
{
1070
     1
1070
     0
1002
}
1001
AcDbBlockRepETag
1070
     1
1071
       25
1005
0
  0
TEXT
  5
26F5DB
102
{ACAD_XDICTIONARY
360
26F5DC
102
}
330
A
100
AcDbEntity
  8
1
  6
Continuous
 62
     7
100
AcDbText
 10
2996.028268526007
 20
-545.4875457139993
 30
0.0
 40
2.5
  1
TYPE WP4T
  7
ARIAL
100
AcDbText
1001
AcadAnnotative
1000
AnnotativeData
1002
{
1070
     1
1070
     0
1002
}
1001
AcDbBlockRepETag
1070
     1
1071
       25
1005
0
  0
LINE
  5
26F5DF
330
A
100
AcDbEntity
  8
1
  6
Continuous
 62
     7
100
AcDbLine
 10
2477.443045810698
 20
-545.8201008432975
 30
0.0
 11
2495.883250576167
 21
-545.8201008432975
 31
0.0
  0
LINE
  5
26F5E0
330
A
100
AcDbEntity
  8
1
  6
Continuous
 62
     7
100
AcDbLine
 10
2507.883250576167
 20
-545.8201008432975
 30
0.0
 11
2531.071320769817
 21
-545.8201008432975
 31
0.0
  0
LINE
  5
26F5E1
330
A
100
AcDbEntity
  8
1
  6
Continuous
 62
     7
100
AcDbLine
 10
2543.071320769817
 20
-545.8201008432975
 30
0.0
 11
2563.373604824588
 21
-545.8201008432975
 31
0.0
  0
LINE
  5
26F5E2
330
A
100
AcDbEntity
  8
1
  6
Continuous
 62
     7
100
AcDbLine
 10
2575.373604824588
 20
-545.8201008432975
 30
0.0
 11
2598.537879920309
 21
-545.8201008432975
 31
0.0
  0
LINE
  5
26F5E3
330
A
100
AcDbEntity
  8
1
  6
Continuous
 62
     7
100
AcDbLine
 10
2610.537879920309
 20
-545.8201008432975
 30
0.0
 11
2633.920093988977
 21
-545.8201008432975
 31
0.0
  0
LINE
  5
26F5E4
330
A
100
AcDbEntity
  8
1
  6
Continuous
 62
     7
100
AcDbLine
 10
2645.920093988977
 20
-545.8201008432975
 30
0.0
 11
2667.367456432651
 21
-545.8201008432975
 31
0.0
  0
LINE
  5
26F5E5
330
A
100
AcDbEntity
  8
1
  6
Continuous
 62
     7
100
AcDbLine
 10
2679.367456432651
 20
-545.8201008432975
 30
0.0
 11
2702.519400647301
 21
-545.8201008432975
 31
0.0
  0
LINE
  5
26F5E6
330
A
100
AcDbEntity
  8
1
  6
Continuous
 62
     7
100
AcDbLine
 10
2714.5194006473
 20
-545.8201008432975
 30
0.0
 11
2735.829499483493
 21
-545.8201008432975
 31
0.0
  0
LINE
  5
26F5E7
330
A
100
AcDbEntity
  8
1
  6
Continuous
 62
     7
100
AcDbLine
 10
3029.417620277176
 20
-545.8201008432975
 30
0.0
 11
3051.103460115982
 21
-545.8201008432975
 31
0.0
  0
LINE
  5
26F5E8
330
A
100
AcDbEntity
  8
1
  6
Continuous
 62
     7
100
AcDbLine
 10
3063.103460115983
 20
-545.8201008432975
 30
0.0
 11
3087.54748995659
 21
-545.8201008432975
 31
0.0
  0
LINE
  5
26F5E9
330
A
100
AcDbEntity
  8
1
  6
Continuous
 62
     7
100
AcDbLine
 10
2747.829499483493
 20
-545.8201008432975
 30
0.0
 11
2771.361259897784
 21
-545.8201008432975
 31
0.0
  0
LINE
  5
26F5EA
330
A
100
AcDbEntity
  8
1
  6
Continuous
 62
     7
100
AcDbLine
 10
2783.361259897784
 20
-545.8201008432975
 30
0.0
 11
2804.7611828684
 21
-545.8201008432975
 31
0.0
  0
LINE
  5
26F5EB
330
A
100
AcDbEntity
  8
1
  6
Continuous
 62
     7
100
AcDbLine
 10
2816.7611828684
 20
-545.8201008432975
 30
0.0
 11
2839.944304952594
 21
-545.8201008432975
 31
0.0
  0
LINE
  5
26F5EC
330
A
100
AcDbEntity
  8
1
  6
Continuous
 62
     7
100
AcDbLine
 10
2851.944304952594
 20
-545.8201008432975
 30
0.0
 11
2876.888071196546
 21
-545.8201008432975
 31
0.0
  0
LINE
  5
26F5ED
330
A
100
AcDbEntity
  8
1
  6
Continuous
 62
     7
100
AcDbLine
 10
2888.888071196547
 20
-545.8201008432975
 30
0.0
 11
2911.615258011795
 21
-545.8201008432975
 31
0.0
  0
LINE
  5
26F5EE
330
A
100
AcDbEntity
  8
1
  6
Continuous
 62
     7
100
AcDbLine
 10
2923.615258011795
 20
-545.8201008432975
 30
0.0
 11
2947.489357322908
 21
-545.8201008432975
 31
0.0
  0
LINE
  5
26F5EF
330
A
100
AcDbEntity
  8
1
  6
Continuous
 62
     7
100
AcDbLine
 10
2959.489357322908
 20
-545.8201008432975
 30
0.0
 11
2982.092638862388
 21
-545.8201008432975
 31
0.0
  0
LINE
  5
26F5F0
330
A
100
AcDbEntity
  8
1
  6
Continuous
 62
     7
100
AcDbLine
 10
2994.092638862388
 20
-545.8201008432975
 30
0.0
 11
3017.417620277175
 21
-545.8201008432975
 31
0.0
  0
LINE
  5
26F5F3
330
A
100
AcDbEntity
  8
1
  6
Continuous
 62
     7
100
AcDbLine
 10
2479.880937565648
 20
-548.3132680016998
 30
0.0
 11
2493.224669243299
 21
-548.3132680016998
 31
0.0
  0
LWPOLYLINE
  5
26F5F4
330
A
100
AcDbEntity
  8
1
  6
Continuous
 62
     7
100
AcDbPolyline
 90
        8
 70
     1
 43
0.0
 10
2485.897773650525
 20
-551.490167122795
 10
2485.939601085397
 20
-551.6462693115104
 10
2485.356105267424
 20
-551.6462682602779
 10
2485.397924590655
 20
-551.4901968070745
 10
2485.272857411163
 20
-551.3410723997512
 10
2485.272857411163
 20
-551.7163226080692
 10
2486.022857411164
 20
-551.7163226080692
 10
2486.022857411164
 20
-551.3410683588419
  0
LWPOLYLINE
  5
26F5F5
330
A
100
AcDbEntity
  8
1
  6
Continuous
 62
     7
100
AcDbPolyline
 90
        6
 70
     1
 43
0.0
 10
2485.939601085397
 20
-551.6462693115104
 10
2485.356105267424
 20
-551.6462682602779
 10
2485.397924590655
 20
-551.4901968070745
 10
2485.272857411163
 20
-551.3410723997512
 10
2486.022857411164
 20
-551.3410683588419
 10
2485.897773650525
 20
-551.490167122795
  0
TEXT
  5
26F5F6
102
{ACAD_XDICTIONARY
360
26F5F7
102
}
330
A
100
AcDbEntity
  8
1
  6
Continuous
 62
     7
100
AcDbText
 10
2512.766832034889
 20
-548.1091804273993
 30
0.0
 40
1.25
  1
SECTION VIEW
  7
ARIAL
100
AcDbText
1001
AcadAnnotative
1000
AnnotativeData
1002
{
1070
     1
1070
     0
1002
}
  0
LINE
  5
26F5FA
330
A
100
AcDbEntity
  8
1
  6
Continuous
 62
     7
100
AcDbLine
 10
2512.623924378792
 20
-548.3132680016998
 30
0.0
 11
2525.967656056443
 21
-548.3132680016998
 31
0.0
  0
LWPOLYLINE
  5
26F5FB
330
A
100
AcDbEntity
  8
1
  6
Continuous
 62
     7
100
AcDbPolyline
 90
        6
 70
     1
 43
0.0
 10
2519.863077858542
 20
-551.3410703792969
 10
2519.737994097904
 20
-551.4901691432498
 10
2519.779821532775
 20
-551.6462713319655
 10
2519.196325714802
 20
-551.6462702807323
 10
2519.238145038034
 20
-551.4901988275295
 10
2519.113077858542
 20
-551.3410744202058
  0
TEXT
  5
26F5FC
102
{ACAD_XDICTIONARY
360
26F5FD
102
}
330
A
100
AcDbEntity
  8
1
  6
Continuous
 62
     7
100
AcDbText
 10
2546.391306605907
 20
-548.1091804273993
 30
0.0
 40
1.25
  1
SECTION VIEW
  7
ARIAL
100
AcDbText
1001
AcadAnnotative
1000
AnnotativeData
1002
{
1070
     1
1070
     0
1002
}
  0
LINE
  5
26F600
330
A
100
AcDbEntity
  8
1
  6
Continuous
 62
     7
100
AcDbLine
 10
2546.24839894981
 20
-548.3132680016998
 30
0.0
 11
2559.592130627461
 21
-548.3132680016998
 31
0.0
  0
TEXT
  5
26F601
102
{ACAD_XDICTIONARY
360
26F602
102
}
330
A
100
AcDbEntity
  8
1
  6
Continuous
 62
     7
100
AcDbText
 10
2580.55498138559
 20
-548.1091804273993
 30
0.0
 40
1.25
  1
SECTION VIEW
  7
ARIAL
100
AcDbText
1001
AcadAnnotative
1000
AnnotativeData
1002
{
1070
     1
1070
     0
1002
}
  0
LINE
  5
26F605
330
A
100
AcDbEntity
  8
1
  6
Continuous
 62
     7
100
AcDbLine
 10
2580.412073729493
 20
-548.3132680016998
 30
0.0
 11
2593.755805407144
 21
-548.3132680016998
 31
0.0
  0
LWPOLYLINE
  5
26F606
330
A
100
AcDbEntity
  8
1
  6
Continuous
 62
     7
100
AcDbPolyline
 90
       42
 70
     0
 43
0.0
 10
2552.900576051208
 20
-551.7165479446666
 10
2554.456613409924
 20
-551.7165479446666
 10
2554.406308833734
 20
-551.5288088003877
 10
2554.456612455613
 20
-551.3410722804625
 10
2554.391347628847
 20
-551.3410722804625
 10
2554.341044006968
 20
-551.5288073689218
 10
2554.372414583122
 20
-551.6458841055165
 10
2553.744105944124
 20
-551.6458841055165
 10
2553.769144733183
 20
-551.5524384858736
 10
2553.393908362368
 20
-551.5524384858736
 10
2553.418947087498
 20
-551.6458838669388
 10
2552.900601817595
 20
-551.6458838669388
 10
2552.890779098289
 20
-551.646107891359
 10
2552.874032855371
 20
-551.6476140321093
 10
2552.859886631761
 20
-551.6501737317939
 10
2552.845883554745
 20
-551.6537869904133
 10
2552.838665626302
 20
-551.6558945854377
 10
2552.829570568852
 20
-551.6593577787108
 10
2552.820187309592
 20
-551.6632714066003
 10
2552.810586944664
 20
-551.6677134840011
 10
2552.803658172341
 20
-551.6717781315478
 10
2552.796295665837
 20
-551.6761450569865
 10
2552.792686940194
 20
-551.6782524134328
 10
2552.787633388258
 20
-551.6820159759763
 10
2552.78384382075
 20
-551.6846787412093
 10
2552.773965751429
 20
-551.647812051565
 10
2552.707453163514
 20
-551.7143253552118
 10
2552.744301959835
 20
-551.7241979372471
 42
0.1618553220267158
 10
2552.705472014649
 20
-551.8410139084623
 10
2552.705472014649
 20
-551.8663339166506
 10
2552.455278965561
 20
-551.7992950264248
 10
2552.66397524841
 20
-552.7564616686236
 42
0.352646948818992
 10
2552.770544547823
 20
-552.8422985696208
 10
2552.775492648435
 20
-552.8422985696208
 10
2552.775492648435
 20
-552.744284664997
 42
-0.2727934455900272
 10
2552.710565170476
 20
-552.6742113055485
 10
2552.556472633201
 20
-551.967479272315
 42
-0.5617497854832571
 10
2552.614596830685
 20
-551.9120313197008
 10
2552.75659825229
 20
-551.9500796844813
 42
0.4931116727717605
 10
2552.775492648435
 20
-551.9355812009608
 10
2552.775492648435
 20
-551.8416315860169
 42
-0.4142139301070375
 10
2552.900576132741
 20
-551.7165479446666
  0
LWPOLYLINE
  5
26F607
330
A
100
AcDbEntity
  8
1
  6
Continuous
 62
     7
100
AcDbPolyline
 90
       53
 70
     0
 43
0.0
 10
2552.455278965561
 20
-551.716692999882
 10
2552.455278965561
 20
-551.7992950264248
 10
2552.705472014649
 20
-551.8663339166506
 10
2552.705472014649
 20
-551.8410139084623
 42
-0.1618553220268707
 10
2552.744301959835
 20
-551.7241979372471
 10
2552.707453163514
 20
-551.7143253552118
 10
2552.773965751429
 20
-551.647812051565
 10
2552.78384382075
 20
-551.6846787412093
 10
2552.787633388258
 20
-551.6820159759763
 10
2552.792686940194
 20
-551.6782524134328
 10
2552.796295665837
 20
-551.6761450569865
 10
2552.803658172341
 20
-551.6717781315478
 10
2552.810586944664
 20
-551.6677134840011
 10
2552.820187309592
 20
-551.6632714066003
 10
2552.829570568852
 20
-551.6593577787108
 10
2552.838665626302
 20
-551.6558945854377
 10
2552.845883554745
 20
-551.6537869904133
 10
2552.859886631761
 20
-551.6501737317939
 10
2552.874032855371
 20
-551.6476140321093
 10
2552.890779098289
 20
-551.646107891359
 10
2552.900601817595
 20
-551.6458838669388
 10
2553.418947087498
 20
-551.6458838669388
 10
2553.393908362368
 20
-551.5524384858736
 10
2553.769144733183
 20
-551.5524384858736
 10
2553.744105944124
 20
-551.6458841055165
 10
2554.372414583122
 20
-551.6458841055165
 10
2554.341044006968
 20
-551.5288073689218
 10
2554.391347628847
 20
-551.3410722804625
 10
2552.818573093163
 20
-551.3410725190403
 10
2552.804316646675
 20
-551.341947144732
 10
2552.774545972291
 20
-551.3454454089202
 10
2552.742678677454
 20
-551.3515675501832
 10
2552.709134181688
 20
-551.3616252684807
 10
2552.681250656573
 20
-551.372776626759
 10
2552.658189263067
 20
-551.3832726122128
 10
2552.631353571021
 20
-551.3990151589275
 10
2552.60577518323
 20
-551.4160705984901
 10
2552.582294370202
 20
-551.4353114093934
 10
2552.562167004725
 20
-551.4545531746072
 10
2552.539944450261
 20
-551.4794797682379
 10
2552.5231719638
 20
-551.5017817690618
 10
2552.508496574946
 20
-551.524521798464
 10
2552.496337226065
 20
-551.5468247535983
 10
2552.487950744259
 20
-551.5638792388505
 10
2552.479984636281
 20
-551.5826836912183
 10
2552.471178257797
 20
-551.6089222233867
 10
2552.464470408385
 20
-551.6347234427095
 10
2552.459857270804
 20
-551.6596500363407
 10
2552.456502868943
 20
-551.6845756756611
 10
2552.455245087534
 20
-551.7108142078297
 10
2552.455245087534
 20
-551.7296186601976
 10
2552.455278965561
 20
-551.7992950264248
 10
2552.455278965561
 20
-551.7101075408087
  0
LWPOLYLINE
  5
26F608
330
A
100
AcDbEntity
  8
1
  6
Continuous
 62
     7
100
AcDbPolyline
 90
       50
 70
     1
 43
0.0
 10
2586.402043757033
 20
-551.7241978179578
 42
0.1618553220267127
 10
2586.363213811847
 20
-551.8410137891732
 10
2586.363213811847
 20
-551.8663337973613
 10
2586.11302076276
 20
-551.7992949071355
 10
2586.11302076276
 20
-551.8693417844644
 10
2586.414340049489
 20
-551.9500795651926
 42
0.4931116727717594
 10
2586.433234445633
 20
-551.9355810816716
 10
2586.433234445633
 20
-551.8416314667279
 42
-0.4142139301070375
 10
2586.558317929939
 20
-551.7165478253779
 10
2587.128013721591
 20
-551.7165478253779
 42
-0.4142171731178872
 10
2587.175044909681
 20
-551.7635795932651
 10
2587.175044909681
 20
-552.347330450753
 10
2587.081232357602
 20
-552.2535178986737
 10
2587.081232357602
 20
-552.3419648392411
 10
2587.206315760374
 20
-552.4670482420138
 10
2587.331399163148
 20
-552.3419648392411
 10
2587.331399163148
 20
-552.2535178986737
 10
2587.237586611067
 20
-552.347330450753
 10
2587.237586611067
 20
-551.7635791161096
 42
-0.414214201599611
 10
2587.284617799157
 20
-551.7165478253779
 10
2588.067708129063
 20
-551.7165478253779
 42
-0.414214201599611
 10
2588.114739317151
 20
-551.7635791161096
 10
2588.114739317151
 20
-552.3153520980173
 10
2588.052197615764
 20
-552.25281003874
 10
2588.052197615764
 20
-552.3419648392411
 10
2588.177281018537
 20
-552.4670482420138
 10
2588.177281018537
 20
-551.7165478253779
 10
2588.076672820468
 20
-551.3410723997512
 10
2588.013631094721
 20
-551.3410723997512
 10
2588.09530478119
 20
-551.6458837476498
 10
2587.243778655584
 20
-551.6458837476498
 10
2587.268817380714
 20
-551.5524383665847
 10
2587.143733977942
 20
-551.5524383665847
 10
2587.168772703072
 20
-551.6458837476498
 10
2586.558343614794
 20
-551.6458837476498
 10
2586.548520895488
 20
-551.6461077720697
 10
2586.531774652569
 20
-551.6476139128204
 10
2586.517628428959
 20
-551.6501736125052
 10
2586.503625351944
 20
-551.6537868711243
 10
2586.496407423501
 20
-551.6558944661483
 10
2586.487312366051
 20
-551.6593576594215
 10
2586.47792910679
 20
-551.6632712873112
 10
2586.468328741862
 20
-551.6677133647118
 10
2586.46139996954
 20
-551.6717780122586
 10
2586.454037463036
 20
-551.6761449376972
 10
2586.450428737393
 20
-551.6782522941439
 10
2586.445375185456
 20
-551.6820158566876
 10
2586.441585617948
 20
-551.6846786219202
 10
2586.431707548627
 20
-551.6478119322756
 10
2586.365194960713
 20
-551.7143252359224
  0
LWPOLYLINE
  5
26F609
330
A
100
AcDbEntity
  8
1
  6
Continuous
 62
     7
100
AcDbPolyline
 90
       51
 70
     0
 43
0.0
 10
2586.11302076276
 20
-551.7101074215197
 10
2586.11302076276
 20
-551.7992949071355
 10
2586.112986884732
 20
-551.7296185409086
 10
2586.112986884732
 20
-551.7108140885408
 10
2586.114244666141
 20
-551.6845755563723
 10
2586.117599068002
 20
-551.6596499170515
 10
2586.122212205583
 20
-551.6347233234206
 10
2586.128920054995
 20
-551.6089221040979
 10
2586.13772643348
 20
-551.5826835719296
 10
2586.145692541456
 20
-551.5638791195612
 10
2586.154079023264
 20
-551.5468246343093
 10
2586.166238372144
 20
-551.524521679175
 10
2586.180913760998
 20
-551.5017816497731
 10
2586.19768624746
 20
-551.4794796489492
 10
2586.219908801923
 20
-551.4545530553179
 10
2586.240036167402
 20
-551.4353112901041
 10
2586.263516980429
 20
-551.4160704792011
 10
2586.28909536822
 20
-551.3990150396384
 10
2586.315931060264
 20
-551.3832724929235
 10
2586.338992453771
 20
-551.3727765074701
 10
2586.366875978886
 20
-551.3616251491916
 10
2586.400420474653
 20
-551.3515674308941
 10
2586.432287769489
 20
-551.3454452896313
 10
2586.462058443874
 20
-551.3419470254426
 10
2586.476314890362
 20
-551.3410723997512
 10
2588.013730308617
 20
-551.3410723997512
 10
2588.09530478119
 20
-551.6458837476498
 10
2587.243778655584
 20
-551.6458837476498
 10
2587.268817380714
 20
-551.5524383665847
 10
2587.143733977942
 20
-551.5524383665847
 10
2587.168772703072
 20
-551.6458837476498
 10
2586.558343614794
 20
-551.6458837476498
 10
2586.548520895488
 20
-551.6461077720697
 10
2586.531774652569
 20
-551.6476139128204
 10
2586.517628428959
 20
-551.6501736125052
 10
2586.503625351944
 20
-551.6537868711243
 10
2586.496407423501
 20
-551.6558944661483
 10
2586.487312366051
 20
-551.6593576594215
 10
2586.47792910679
 20
-551.6632712873112
 10
2586.468328741862
 20
-551.6677133647118
 10
2586.46139996954
 20
-551.6717780122586
 10
2586.454037463036
 20
-551.6761449376972
 10
2586.450428737393
 20
-551.6782522941439
 10
2586.445375185456
 20
-551.6820158566876
 10
2586.441585617948
 20
-551.6846786219202
 10
2586.431707548627
 20
-551.6478119322756
 10
2586.365194960713
 20
-551.7143252359224
 10
2586.402043757033
 20
-551.7241978179578
 42
0.1618553220266932
 10
2586.363213811847
 20
-551.8410137891732
 10
2586.363213811847
 20
-551.8663337973613
 10
2586.11302076276
 20
-551.7992949071355
  0
TEXT
  5
26F60A
102
{ACAD_XDICTIONARY
360
26F60B
102
}
330
A
100
AcDbEntity
  8
1
  6
Continuous
 62
     7
100
AcDbText
 10
2615.603625463965
 20
-548.1091804273993
 30
0.0
 40
1.25
  1
SECTION VIEW
  7
ARIAL
100
AcDbText
1001
AcadAnnotative
1000
AnnotativeData
1002
{
1070
     1
1070
     0
1002
}
  0
LINE
  5
26F60E
330
A
100
AcDbEntity
  8
1
  6
Continuous
 62
     7
100
AcDbLine
 10
2615.460717807869
 20
-548.3132680016998
 30
0.0
 11
2628.80444948552
 21
-548.3132680016998
 31
0.0
  0
LWPOLYLINE
  5
26F60F
330
A
100
AcDbEntity
  8
1
  6
Continuous
 62
     7
100
AcDbPolyline
 90
       39
 70
     1
 43
0.0
 10
2621.980517722282
 20
-551.5283369924248
 10
2621.955380724712
 20
-551.4345244403456
 10
2622.043059423668
 20
-551.3407118882658
 10
2622.043059423668
 20
-551.5283369924248
 10
2622.043059423668
 20
-551.5908786938115
 10
2622.043059423668
 20
-552.3413791104474
 10
2621.886705170203
 20
-552.1850248569815
 10
2621.886705170203
 20
-552.1048822866336
 10
2621.980517722282
 20
-552.1986948387133
 10
2621.980517722282
 20
-551.6221495445046
 42
0.4142135623730951
 10
2621.949246871589
 20
-551.5908786938115
 10
2620.787806735898
 20
-551.5908786938115
 42
0.4142135623730951
 10
2620.756535885206
 20
-551.6221495445046
 10
2620.756535885206
 20
-552.2299656894062
 10
2620.850348437284
 20
-552.1361531373266
 10
2620.850348437284
 20
-552.2162957076747
 10
2620.725265034511
 20
-552.3413791104474
 10
2620.600181631739
 20
-552.2162957076747
 10
2620.600181631739
 20
-552.1361531373266
 10
2620.693994183818
 20
-552.2299656894062
 10
2620.693994183818
 20
-551.6221495445046
 42
0.4142135623730951
 10
2620.662723333125
 20
-551.5908786938115
 10
2620.10723464163
 20
-551.5908786938115
 42
0.2606240655338132
 10
2620.019528063951
 20
-551.6758327368523
 42
-0.7231922085302212
 10
2619.983427552734
 20
-551.6639274010298
 10
2619.983427552733
 20
-551.4601929910293
 42
-0.123818130538143
 10
2620.03462382556
 20
-551.3494218699919
 42
-0.7154663004280934
 10
2620.074410665776
 20
-551.3619100958569
 10
2620.046709634878
 20
-551.5283369924248
 10
2620.679481331505
 20
-551.5283369924248
 10
2620.662723333125
 20
-551.4657952910387
 10
2620.725265034511
 20
-551.4657952910387
 10
2620.787806735898
 20
-551.4657952910387
 10
2620.771048737517
 20
-551.5283369924248
 10
2621.338369710429
 20
-551.5283369924248
 10
2621.321611712048
 20
-551.4657952910387
 10
2621.384153413435
 20
-551.4657952910387
 10
2621.446695114821
 20
-551.4657952910387
 10
2621.429937116441
 20
-551.5283369924248
  0
LWPOLYLINE
  5
26F610
330
A
100
AcDbEntity
  8
1
  6
Continuous
 62
     7
100
AcDbPolyline
 90
       16
 70
     1
 43
0.0
 10
2620.679481331505
 20
-551.5283369924248
 10
2620.662723333125
 20
-551.4657952910387
 10
2620.725265034511
 20
-551.4657952910387
 10
2620.787806735898
 20
-551.4657952910387
 10
2620.771048737517
 20
-551.5283369924248
 10
2621.338369710429
 20
-551.5283369924248
 10
2621.321611712048
 20
-551.4657952910387
 10
2621.384153413435
 20
-551.4657952910387
 10
2621.446695114821
 20
-551.4657952910387
 10
2621.429937116441
 20
-551.5283369924248
 10
2621.980517722282
 20
-551.5283369924248
 10
2621.955380724712
 20
-551.4345244403456
 10
2622.043059423668
 20
-551.3407118882658
 10
2620.058984698047
 20
-551.3414329112369
 42
-0.3208958779647498
 10
2620.074410665776
 20
-551.3619100958569
 10
2620.046709634878
 20
-551.5283369924248
  0
TEXT
  5
26F611
102
{ACAD_XDICTIONARY
360
26F612
102
}
330
A
100
AcDbEntity
  8
1
  6
Continuous
 62
     7
100
AcDbText
 10
2649.29601616631
 20
-548.1091804273993
 30
0.0
 40
1.25
  1
SECTION VIEW
  7
ARIAL
100
AcDbText
1001
AcadAnnotative
1000
AnnotativeData
1002
{
1070
     1
1070
     0
1002
}
  0
LINE
  5
26F615
330
A
100
AcDbEntity
  8
1
  6
Continuous
 62
     7
100
AcDbLine
 10
2649.153108510214
 20
-548.3132680016998
 30
0.0
 11
2662.496840187865
 21
-548.3132680016998
 31
0.0
  0
LWPOLYLINE
  5
26F616
330
A
100
AcDbEntity
  8
1
  6
Continuous
 62
     7
100
AcDbPolyline
 90
       41
 70
     0
 43
0.0
 10
2656.045849815093
 20
-551.6466591175805
 10
2656.070888301645
 20
-551.5532138185262
 10
2655.945804898872
 20
-551.5532138185262
 10
2655.970843385424
 20
-551.6466591175805
 10
2655.945804898872
 20
-551.5532138334375
 10
2656.070888301645
 20
-551.5532138334375
 10
2656.045849815093
 20
-551.6466591175805
 10
2656.458205052135
 20
-551.6466591175805
 10
2656.37632329154
 20
-551.3410723997512
 10
2656.439365409562
 20
-551.3410723997512
 10
2656.540181468415
 20
-551.7173233816971
 10
2656.540181468415
 20
-552.4678237983335
 10
2656.415098125286
 20
-552.3427403955606
 10
2656.415098125286
 20
-552.2535854757952
 10
2656.477639826673
 20
-552.3161271771814
 10
2656.477639826673
 20
-551.7643547358017
 42
0.4142128326842445
 10
2656.430608355398
 20
-551.7173233816971
 10
2655.647517916778
 20
-551.7173233858085
 42
0.4142140861418028
 10
2655.600486643435
 20
-551.7643547432571
 10
2655.600486643435
 20
-552.3481055299172
 10
2655.694299195514
 20
-552.254292977838
 10
2655.694299195514
 20
-552.3427403359165
 10
2655.569215792742
 20
-552.4678237983335
 10
2655.444132389969
 20
-552.3427403955606
 10
2655.444132389969
 20
-552.2542932164151
 10
2655.537944942049
 20
-552.3481057684948
 10
2655.537944942049
 20
-551.7643547320741
 42
0.4142153591658755
 10
2655.490913871966
 20
-551.7173233734747
 10
2654.638877923835
 20
-551.7173233734747
 42
0.3168090574379669
 10
2654.521786634003
 20
-551.7977943878713
 42
-0.3124577159356985
 10
2654.503052119661
 20
-551.8107685390956
 10
2654.495932841806
 20
-551.8107685390956
 42
-0.414211544567647
 10
2654.47591936366
 20
-551.7907551988273
 10
2654.47591936366
 20
-551.5532138334375
 10
2654.663916410387
 20
-551.5532138334375
 10
2654.638877923835
 20
-551.6466591175805
 10
2655.001177421184
 20
-551.6466591175805
 10
2654.976138934631
 20
-551.5532138334375
 10
2655.101222337404
 20
-551.5532138334375
 10
2655.076183850852
 20
-551.6466591175805
 10
2655.970843385424
 20
-551.6466591175805
  0
LWPOLYLINE
  5
26F617
330
A
100
AcDbEntity
  8
1
  6
Continuous
 62
     7
100
AcDbPolyline
 90
       18
 70
     0
 43
0.0
 10
2655.076183850852
 20
-551.6466591175805
 10
2655.101222337404
 20
-551.5532138334375
 10
2654.976138934631
 20
-551.5532138334375
 10
2655.001177421184
 20
-551.6466591175805
 10
2654.976138934631
 20
-551.5532138185262
 10
2655.101222337404
 20
-551.5532138185262
 10
2655.076183850852
 20
-551.6466591175805
 10
2655.970843385424
 20
-551.6466591175805
 10
2655.945804898872
 20
-551.5532138334375
 10
2656.070888301645
 20
-551.5532138334375
 10
2656.045849815093
 20
-551.6466591175805
 10
2656.458205052135
 20
-551.6466591175805
 10
2656.376630340985
 20
-551.3410723997512
 10
2654.688060610521
 20
-551.3410723997512
 42
0.4142138203129898
 10
2654.47591936366
 20
-551.5532138334375
 10
2654.663916410387
 20
-551.5532138334375
 10
2654.638877923835
 20
-551.6466591175805
 10
2655.001177421184
 20
-551.6466591175805
  0
TEXT
  5
26F618
102
{ACAD_XDICTIONARY
360
26F619
102
}
330
A
100
AcDbEntity
  8
1
  6
Continuous
 62
     7
100
AcDbText
 10
2683.620603954191
 20
-548.1091804273993
 30
0.0
 40
1.25
  1
SECTION VIEW
  7
ARIAL
100
AcDbText
1001
AcadAnnotative
1000
AnnotativeData
1002
{
1070
     1
1070
     0
1002
}
  0
LINE
  5
26F61C
330
A
100
AcDbEntity
  8
1
  6
Continuous
 62
     7
100
AcDbLine
 10
2683.477696298095
 20
-548.3132680016998
 30
0.0
 11
2696.821427975746
 21
-548.3132680016998
 31
0.0
  0
LWPOLYLINE
  5
26F61D
330
A
100
AcDbEntity
  8
1
  6
Continuous
 62
     7
100
AcDbPolyline
 90
       24
 70
     1
 43
0.0
 10
2689.447963665394
 20
-551.5532138334373
 10
2689.473002151947
 20
-551.6466591175801
 10
2689.061791491216
 20
-551.6466591175801
 10
2689.086829977768
 20
-551.5532138334373
 10
2688.961798465636
 20
-551.5532138334373
 10
2688.986836952188
 20
-551.6466591175801
 10
2688.578342617374
 20
-551.6466591175801
 10
2688.603381103926
 20
-551.5532138334373
 10
2688.478297701153
 20
-551.5532138334373
 10
2688.503336187706
 20
-551.6466591175801
 10
2688.141036690357
 20
-551.6466591175801
 10
2688.16607517691
 20
-551.5532138334373
 10
2687.978078130182
 20
-551.5532138334373
 10
2687.978078130182
 20
-551.7907551988272
 42
0.4142115445673011
 10
2687.998091608328
 20
-551.8107685390956
 10
2688.005210886184
 20
-551.8107685390954
 42
0.3124577159362216
 10
2688.023945400525
 20
-551.7977943878711
 42
-0.316809154089462
 10
2688.14103670827
 20
-551.7173233816963
 10
2690.042340234937
 20
-551.7173233816968
 10
2689.941524176084
 20
-551.3410723997512
 10
2689.878482019347
 20
-551.3410723997512
 10
2689.960363818656
 20
-551.6466591175801
 10
2689.548008581614
 20
-551.6466591175801
 10
2689.573047068167
 20
-551.5532138334373
  0
LWPOLYLINE
  5
26F61E
330
A
100
AcDbEntity
  8
1
  6
Continuous
 62
     7
100
AcDbPolyline
 90
       22
 70
     0
 43
0.0
 10
2689.548008581614
 20
-551.6466591175801
 10
2689.573047068167
 20
-551.5532138334373
 10
2689.447963665394
 20
-551.5532138185261
 10
2689.573047068167
 20
-551.5532138185261
 10
2689.548008581614
 20
-551.6466591175801
 10
2689.960363818656
 20
-551.6466591175801
 10
2689.878482019347
 20
-551.3410723997512
 10
2688.190219377043
 20
-551.3410723997512
 42
0.4142138203134003
 10
2687.978078130182
 20
-551.5532138334373
 10
2688.16607517691
 20
-551.5532138334373
 10
2688.141036690357
 20
-551.6466591175801
 10
2688.503336187706
 20
-551.6466591175801
 10
2688.478297701153
 20
-551.5532138185261
 10
2688.603381103926
 20
-551.5532138185261
 10
2688.578342617374
 20
-551.6466591175801
 10
2688.986836952188
 20
-551.6466591175801
 10
2688.961798465636
 20
-551.5532138334373
 10
2689.086829977768
 20
-551.5532138334373
 10
2689.061791491216
 20
-551.6466591175801
 10
2689.473002151947
 20
-551.6466591175801
 10
2689.447963665394
 20
-551.5532138185261
 10
2689.473002151947
 20
-551.6466591175801
  0
TEXT
  5
26F61F
102
{ACAD_XDICTIONARY
360
26F620
102
}
330
A
100
AcDbEntity
  8
1
  6
Continuous
 62
     7
100
AcDbText
 10
3034.0753486572
 20
-548.1091804273993
 30
0.0
 40
1.25
  1
SECTION VIEW
  7
ARIAL
100
AcDbText
1001
AcadAnnotative
1000
AnnotativeData
1002
{
1070
     1
1070
     0
1002
}
  0
LINE
  5
26F623
330
A
100
AcDbEntity
  8
1
  6
Continuous
 62
     7
100
AcDbLine
 10
3033.932441001104
 20
-548.3132680016998
 30
0.0
 11
3047.276172678755
 21
-548.3132680016998
 31
0.0
  0
LWPOLYLINE
  5
26F624
330
A
100
AcDbEntity
  8
1
  6
Continuous
 62
     7
100
AcDbPolyline
 90
       36
 70
     0
 43
0.0
 10
2725.820409460961
 20
-551.6458841055165
 10
2726.44871803603
 20
-551.6458841055165
 10
2726.417347459876
 20
-551.5288073689218
 10
2726.467651081756
 20
-551.3410722804625
 10
2726.532915908522
 20
-551.3410722804625
 10
2726.482612286643
 20
-551.5288088003877
 10
2726.532916862832
 20
-551.7165479446666
 10
2724.976879585649
 20
-551.7165479446666
 42
0.4142139301070375
 10
2724.851796101343
 20
-551.8416315860173
 10
2724.851796101343
 20
-551.9355812009608
 42
-0.4931116727717594
 10
2724.832901705199
 20
-551.9500796844819
 10
2724.53158241847
 20
-551.8693419037532
 10
2724.53158241847
 20
-551.7992950264248
 10
2724.781775467557
 20
-551.8663339166506
 10
2724.781775467557
 20
-551.8410139084626
 42
-0.1618553220140522
 10
2724.820605412743
 20
-551.7241979372471
 10
2724.783756616423
 20
-551.7143253552118
 10
2724.850269204337
 20
-551.647812051565
 10
2724.860147273658
 20
-551.6846787412093
 10
2724.863936841166
 20
-551.6820159759763
 10
2724.868990393103
 20
-551.6782524134334
 10
2724.872599118747
 20
-551.6761450569865
 10
2724.87996162525
 20
-551.6717781315478
 10
2724.886890397572
 20
-551.6677134840011
 10
2724.896490762501
 20
-551.6632714066003
 10
2724.905874021761
 20
-551.6593577787108
 10
2724.914969079211
 20
-551.6558945854377
 10
2724.922187007654
 20
-551.6537869904136
 10
2724.936190084669
 20
-551.6501737317939
 10
2724.95033630828
 20
-551.6476140321093
 10
2724.967082551198
 20
-551.646107891359
 10
2724.976905270504
 20
-551.6458838669388
 10
2725.495250540407
 20
-551.6458838669388
 10
2725.470211815278
 20
-551.5524384858742
 10
2725.845448186091
 20
-551.5524384858742
 10
2725.820409460961
 20
-551.6458838669388
  0
LWPOLYLINE
  5
26F625
330
A
100
AcDbEntity
  8
1
  6
Continuous
 62
     7
100
AcDbPolyline
 90
       52
 70
     0
 43
0.0
 10
2724.53158241847
 20
-551.710107540809
 10
2724.53158241847
 20
-551.7992950264248
 10
2724.781775467557
 20
-551.8663339166506
 10
2724.781775467557
 20
-551.8410139084626
 42
-0.1618553220139295
 10
2724.820605412743
 20
-551.7241979372471
 10
2724.783756616423
 20
-551.7143253552118
 10
2724.850269204337
 20
-551.647812051565
 10
2724.860147273658
 20
-551.6846787412093
 10
2724.863936841166
 20
-551.6820159759763
 10
2724.868990393103
 20
-551.6782524134334
 10
2724.872599118747
 20
-551.6761450569865
 10
2724.87996162525
 20
-551.6717781315478
 10
2724.886890397572
 20
-551.6677134840011
 10
2724.896490762501
 20
-551.6632714066003
 10
2724.905874021761
 20
-551.6593577787108
 10
2724.914969079211
 20
-551.6558945854377
 10
2724.922187007654
 20
-551.6537869904136
 10
2724.936190084669
 20
-551.6501737317939
 10
2724.95033630828
 20
-551.6476140321093
 10
2724.967082551198
 20
-551.646107891359
 10
2724.976905270504
 20
-551.6458838669388
 10
2725.495250540407
 20
-551.6458838669388
 10
2725.470211815278
 20
-551.5524384858742
 10
2725.845448186091
 20
-551.5524384858742
 10
2725.820409460961
 20
-551.6458841055165
 10
2726.44871803603
 20
-551.6458841055165
 10
2726.417347459876
 20
-551.5288073689218
 10
2726.467651081756
 20
-551.3410722804625
 10
2724.894876546072
 20
-551.3410725190403
 10
2724.880620099584
 20
-551.341947144732
 10
2724.850849425199
 20
-551.3454454089202
 10
2724.818982130364
 20
-551.3515675501836
 10
2724.785437634596
 20
-551.3616252684811
 10
2724.757554109481
 20
-551.372776626759
 10
2724.734492715974
 20
-551.3832726122128
 10
2724.70765702393
 20
-551.3990151589275
 10
2724.682078636139
 20
-551.4160705984901
 10
2724.658597823111
 20
-551.4353114093934
 10
2724.638470457633
 20
-551.4545531746072
 10
2724.616247903169
 20
-551.4794797682385
 10
2724.599475416708
 20
-551.5017817690618
 10
2724.584800027854
 20
-551.5245217984642
 10
2724.572640678974
 20
-551.5468247535983
 10
2724.564254197166
 20
-551.5638792388505
 10
2724.55628808919
 20
-551.5826836912183
 10
2724.547481710705
 20
-551.6089222233867
 10
2724.540773861293
 20
-551.6347234427098
 10
2724.536160723713
 20
-551.6596500363407
 10
2724.532806321851
 20
-551.6845756756611
 10
2724.531548540442
 20
-551.7108142078297
 10
2724.531548540442
 20
-551.729618660198
 10
2724.53158241847
 20
-551.7992950264248
  0
LWPOLYLINE
  5
26F626
330
A
100
AcDbEntity
  8
1
  6
Continuous
 62
     7
100
AcDbPolyline
 90
       10
 70
     1
 43
0.0
 10
3041.611511787442
 20
-551.6462704820321
 10
3041.569684608274
 20
-551.4901691208831
 10
3041.694768011047
 20
-551.3410704911301
 10
3039.630891865298
 20
-551.3410743083726
 10
3039.755958090479
 20
-551.4901987045126
 10
3039.714140198713
 20
-551.6462704820321
 10
3040.437887471175
 20
-551.6462704820321
 10
3040.412684127461
 20
-551.552207900568
 10
3040.913006286824
 20
-551.5522179208296
 10
3040.887804851732
 20
-551.6462704820321
  0
TEXT
  5
26F627
102
{ACAD_XDICTIONARY
360
26F628
102
}
330
A
100
AcDbEntity
  8
1
  6
Continuous
 62
     7
100
AcDbText
 10
3067.759555804892
 20
-548.1091804273993
 30
0.0
 40
1.25
  1
SECTION VIEW
  7
ARIAL
100
AcDbText
1001
AcadAnnotative
1000
AnnotativeData
1002
{
1070
     1
1070
     0
1002
}
  0
LINE
  5
26F62B
330
A
100
AcDbEntity
  8
1
  6
Continuous
 62
     7
100
AcDbLine
 10
3067.616648148796
 20
-548.3132680016998
 30
0.0
 11
3080.960379826446
 21
-548.3132680016998
 31
0.0
  0
LWPOLYLINE
  5
26F62C
330
A
100
AcDbEntity
  8
1
  6
Continuous
 62
     7
100
AcDbPolyline
 90
       24
 70
     0
 43
0.0
 10
3074.902365372718
 20
-552.2616405135932
 10
3075.02717393403
 20
-552.3614385019381
 10
3075.02717393403
 20
-551.7633558074228
 42
0.4142167379478104
 10
3074.980143153191
 20
-551.7163245166665
 10
3074.026506711849
 20
-551.7163245166906
 10
3074.026506711849
 20
-551.3410743083726
 10
3074.15157293703
 20
-551.4901987045126
 10
3074.109755045265
 20
-551.6462704820321
 10
3074.833502317726
 20
-551.6462704820321
 10
3074.808298974012
 20
-551.552207900568
 10
3075.308621133375
 20
-551.5522179208296
 10
3075.283419698283
 20
-551.6462704820321
 10
3076.007126633993
 20
-551.6462704820321
 10
3075.965299454825
 20
-551.4901691208831
 10
3076.090382857599
 20
-551.3410704911301
 10
3076.090382857599
 20
-551.7163245166906
 10
3075.136746416256
 20
-551.7163245166665
 42
0.4142167379478041
 10
3075.089715635417
 20
-551.7633558074228
 10
3075.089715635417
 20
-552.3614385019381
 10
3075.214799038189
 20
-552.261426748012
 10
3075.214799038189
 20
-552.3416499167336
 10
3075.058444784723
 20
-552.466840202297
 10
3074.902090531257
 20
-552.3416346477637
 10
3074.902090531257
 20
-552.261426748012
  0
LWPOLYLINE
  5
26F62D
330
A
100
AcDbEntity
  8
1
  6
Continuous
 62
     7
100
AcDbPolyline
 90
       10
 70
     1
 43
0.0
 10
3074.026506711849
 20
-551.3410743083726
 10
3076.090382857599
 20
-551.3410704911301
 10
3075.965299454825
 20
-551.4901691208831
 10
3076.007126633993
 20
-551.6462704820321
 10
3075.283419698283
 20
-551.6462704820321
 10
3075.308621133375
 20
-551.5522179208296
 10
3074.808298974012
 20
-551.552207900568
 10
3074.833502317726
 20
-551.6462704820321
 10
3074.109755045265
 20
-551.6462704820321
 10
3074.15157293703
 20
-551.4901987045126
  0
TEXT
  5
26F62E
102
{ACAD_XDICTIONARY
360
26F62F
102
}
330
A
100
AcDbEntity
  8
1
  6
Continuous
 62
     7
100
AcDbText
 10
2753.590522150377
 20
-548.1091804273993
 30
0.0
 40
1.25
  1
SECTION VIEW
  7
ARIAL
100
AcDbText
1001
AcadAnnotative
1000
AnnotativeData
1002
{
1070
     1
1070
     0
1002
}
  0
LINE
  5
26F632
330
A
100
AcDbEntity
  8
1
  6
Continuous
 62
     7
100
AcDbLine
 10
2753.447614494281
 20
-548.3132680016998
 30
0.0
 11
2766.791346171932
 21
-548.3132680016998
 31
0.0
  0
TEXT
  5
26F634
102
{ACAD_XDICTIONARY
360
26F635
102
}
330
A
100
AcDbEntity
  8
1
  6
Continuous
 62
     7
100
AcDbText
 10
2822.384393343585
 20
-548.1091804273993
 30
0.0
 40
1.25
  1
SECTION VIEW
  7
ARIAL
100
AcDbText
1001
AcadAnnotative
1000
AnnotativeData
1002
{
1070
     1
1070
     0
1002
}
  0
LINE
  5
26F638
330
A
100
AcDbEntity
  8
1
  6
Continuous
 62
     7
100
AcDbLine
 10
2822.241485687488
 20
-548.3132680016998
 30
0.0
 11
2835.585217365139
 21
-548.3132680016998
 31
0.0
  0
LWPOLYLINE
  5
26F639
330
A
100
AcDbEntity
  8
1
  6
Continuous
 62
     7
100
AcDbPolyline
 90
       47
 70
     0
 43
0.0
 10
2795.08846676676
 20
-552.3469592239173
 10
2795.08846676676
 20
-551.7632087242962
 42
-0.4142162126630434
 10
2795.135497751213
 20
-551.7161773142755
 10
2796.386832437784
 20
-551.7161773142755
 42
-0.4142143103870421
 10
2796.433863727696
 20
-551.7632087242962
 10
2796.433863727696
 20
-552.3469595817839
 10
2796.340051175616
 20
-552.2531470297048
 10
2796.340051175616
 20
-552.3415943281386
 10
2796.465134578389
 20
-552.4666777309114
 10
2796.590217981162
 20
-552.3415943281386
 10
2796.590217981162
 20
-552.2531470297048
 10
2796.496405429082
 20
-552.3469595817839
 10
2796.496405429082
 20
-551.7632087242962
 42
-0.4142143103870421
 10
2796.54343671899
 20
-551.7161773142755
 10
2796.746572234628
 20
-551.7161773142755
 10
2796.646063165575
 20
-551.3410723997507
 10
2796.583021166842
 20
-551.3410723997507
 10
2796.664761246963
 20
-551.6461306087228
 10
2795.955607732579
 20
-551.6461306087228
 10
2795.98081176214
 20
-551.5520678898382
 10
2795.886749043255
 20
-551.5520678898382
 10
2795.91195307282
 20
-551.6461306087228
 10
2795.220117324275
 20
-551.6461306087228
 10
2795.245321353839
 20
-551.5520678898382
 10
2795.057195916067
 20
-551.5520678898382
 10
2794.869070478297
 20
-551.5520678898382
 10
2794.894274507861
 20
-551.6461306087228
 10
2794.344533504866
 20
-551.6461306087228
 10
2794.36973753443
 20
-551.5520678898382
 10
2794.275674815544
 20
-551.5520678898382
 10
2794.300878845107
 20
-551.6461306087228
 10
2793.751137842112
 20
-551.6461306087228
 10
2793.776341871676
 20
-551.5520678898382
 10
2793.682028866697
 20
-551.5520678898382
 10
2793.682028866697
 20
-551.7902266887171
 42
0.4142135623731076
 10
2793.702042211139
 20
-551.8102400331626
 42
0.3124573460943578
 10
2793.720776776854
 20
-551.7972658650371
 42
-0.3124573460943431
 10
2793.837867812574
 20
-551.7161773142755
 10
2794.978893673647
 20
-551.7161773142755
 42
-0.4142136762958375
 10
2795.025925065374
 20
-551.7632087242962
 10
2795.025925065374
 20
-552.3469597010728
 10
2794.932112513294
 20
-552.2531471489936
 10
2794.932112513294
 20
-552.3415943281386
 10
2795.057195916067
 20
-552.4666777309114
 10
2795.182279199551
 20
-552.3415942088497
 10
2795.182279199551
 20
-552.2531469104158
 10
2795.08846676676
 20
-552.3469593432066
  0
LWPOLYLINE
  5
26F63A
330
A
100
AcDbEntity
  8
1
  6
Continuous
 62
     7
100
AcDbPolyline
 90
       19
 70
     1
 43
0.0
 10
2796.664761246963
 20
-551.6461306087228
 10
2795.955607732579
 20
-551.6461306087228
 10
2795.98081176214
 20
-551.5520678898382
 10
2795.886749043255
 20
-551.5520678898382
 10
2795.91195307282
 20
-551.6461306087228
 10
2795.220117324275
 20
-551.6461306087228
 10
2795.245321353839
 20
-551.5520678898382
 10
2795.057195916067
 20
-551.5520678898382
 10
2794.869070478297
 20
-551.5520678898382
 10
2794.894274507861
 20
-551.6461306087228
 10
2794.344533504866
 20
-551.6461306087228
 10
2794.36973753443
 20
-551.5520678898382
 10
2794.275674815544
 20
-551.5520678898382
 10
2794.300878845107
 20
-551.6461306087228
 10
2793.751137842112
 20
-551.6461306087228
 10
2793.776341871676
 20
-551.5520678898382
 10
2793.682028866697
 20
-551.5520678898382
 42
-0.4142135623730951
 10
2793.893024356782
 20
-551.341072399752
 10
2796.583021166842
 20
-551.3410723997507
  0
TEXT
  5
26F63B
102
{ACAD_XDICTIONARY
360
26F63C
102
}
330
A
100
AcDbEntity
  8
1
  6
Continuous
 62
     7
100
AcDbText
 10
2788.284816514514
 20
-548.1091804273993
 30
0.0
 40
1.25
  1
SECTION VIEW
  7
ARIAL
100
AcDbText
1001
AcadAnnotative
1000
AnnotativeData
1002
{
1070
     1
1070
     0
1002
}
  0
LINE
  5
26F63F
330
A
100
AcDbEntity
  8
1
  6
Continuous
 62
     7
100
AcDbLine
 10
2788.141908858418
 20
-548.3132680016998
 30
0.0
 11
2801.485640536069
 21
-548.3132680016998
 31
0.0
  0
TEXT
  5
26F640
102
{ACAD_XDICTIONARY
360
26F641
102
}
330
A
100
AcDbEntity
  8
1
  6
Continuous
 62
     7
100
AcDbText
 10
2858.034617056672
 20
-548.1091804273993
 30
0.0
 40
1.25
  1
SECTION VIEW
  7
ARIAL
100
AcDbText
1001
AcadAnnotative
1000
AnnotativeData
1002
{
1070
     1
1070
     0
1002
}
  0
LINE
  5
26F644
330
A
100
AcDbEntity
  8
1
  6
Continuous
 62
     7
100
AcDbLine
 10
2857.891709400576
 20
-548.3132680016998
 30
0.0
 11
2871.235441078225
 21
-548.3132680016998
 31
0.0
  0
LWPOLYLINE
  5
26F645
330
A
100
AcDbEntity
  8
1
  6
Continuous
 62
     7
100
AcDbPolyline
 90
       25
 70
     0
 43
0.0
 10
2828.378591843006
 20
-551.5532959718719
 10
2828.403640027659
 20
-551.6467774723452
 10
2827.602811503572
 20
-551.6467774723452
 10
2827.627859449555
 20
-551.5532959867904
 10
2827.504382059396
 20
-551.5532959867904
 10
2827.504382059396
 20
-551.7909293585451
 42
0.414199623877502
 10
2827.524404104206
 20
-551.8109504505416
 10
2827.531525605794
 20
-551.8109504505344
 42
0.3124517555385254
 10
2827.550267811416
 20
-551.7979712740618
 42
-0.3124597717703037
 10
2827.66740316724
 20
-551.7168512644733
 10
2830.568900264476
 20
-551.7168512644778
 10
2830.468210674453
 20
-551.3410723848339
 10
2830.40514413847
 20
-551.3410723848339
 10
2830.487057614145
 20
-551.6467774648848
 10
2830.074249931634
 20
-551.6467774648848
 10
2830.099298116287
 20
-551.5532959718719
 10
2829.97416626524
 20
-551.5532959718719
 10
2829.999214449893
 20
-551.6467774723452
 10
2829.499756645599
 20
-551.6467774723452
 10
2829.524804830251
 20
-551.5532959867904
 10
2828.963272402761
 20
-551.5532959867904
 10
2828.988320587416
 20
-551.6467774723452
 10
2828.478668110627
 20
-551.6467774723452
 10
2828.50371629528
 20
-551.5532959867904
 10
2828.378591843006
 20
-551.5532959867904
  0
LWPOLYLINE
  5
26F646
330
A
100
AcDbEntity
  8
1
  6
Continuous
 62
     7
100
AcDbPolyline
 90
       21
 70
     0
 43
0.0
 10
2827.504382059396
 20
-551.5522949597851
 42
-0.4142135552201271
 10
2827.715604609672
 20
-551.3410724146686
 10
2830.40514413847
 20
-551.3410723848339
 10
2830.487057614145
 20
-551.6467774648848
 10
2830.074249931634
 20
-551.6467774648848
 10
2830.099298116287
 20
-551.5532959718719
 10
2829.97416626524
 20
-551.5532959718719
 10
2829.999214449893
 20
-551.6467774723452
 10
2829.499756645599
 20
-551.6467774723452
 10
2829.524804830251
 20
-551.5532959867904
 10
2828.963272402761
 20
-551.5532959867904
 10
2828.988320587416
 20
-551.6467774723452
 10
2828.478668110627
 20
-551.6467774723452
 10
2828.50371629528
 20
-551.5532959867904
 10
2828.378591843006
 20
-551.5532959718719
 10
2828.403640027659
 20
-551.6467774723452
 10
2827.602811503572
 20
-551.6467774723452
 10
2827.627859449555
 20
-551.5532959867904
 10
2827.504382059396
 20
-551.5532959867904
 10
2827.504382059396
 20
-551.5522949597851
 10
2827.504382059396
 20
-551.5532959867904
  0
LWPOLYLINE
  5
26F647
330
A
100
AcDbEntity
  8
1
  6
Continuous
 62
     7
100
AcDbPolyline
 90
       57
 70
     1
 43
0.0
 10
2865.522055238844
 20
-551.6455129979703
 10
2865.547105892856
 20
-551.5520677361942
 10
2865.422022490085
 20
-551.5520677361942
 10
2865.447051672108
 20
-551.6455129979703
 10
2864.927671333038
 20
-551.6455118050823
 10
2864.952709581013
 20
-551.5520677361942
 10
2864.577459372695
 20
-551.5520677361942
 10
2864.602497382092
 20
-551.6455129979703
 10
2863.927014608274
 20
-551.6455129979703
 10
2863.952042358831
 20
-551.5520677361942
 10
2863.826958956059
 20
-551.5520677361942
 10
2863.851997204033
 20
-551.6455129979703
 10
2863.39719798793
 20
-551.6455131172594
 42
0.1617617281523013
 10
2863.280435040478
 20
-551.6843036971319
 10
2863.270561981288
 20
-551.6474418983293
 10
2863.204049631951
 20
-551.7139543669546
 10
2863.240897712538
 20
-551.7238279033005
 42
0.1618460832074567
 10
2863.202068483085
 20
-551.8406431587829
 10
2863.202068483085
 20
-551.8659636441261
 10
2862.951875433997
 20
-551.7989246346115
 10
2863.160571716846
 20
-552.7560912171662
 42
0.3526463592453341
 10
2863.267140693178
 20
-552.8419281778078
 10
2863.27208911687
 20
-552.8419281778078
 10
2863.27208911687
 20
-552.7439142135396
 42
-0.2727939948735623
 10
2863.207161638912
 20
-552.6738409137351
 10
2863.053069101637
 20
-551.9671088506798
 42
-0.5617499487129911
 10
2863.111193299122
 20
-551.9116609875323
 10
2863.253194004994
 20
-551.9497094119574
 42
0.4931441222194513
 10
2863.272088878293
 20
-551.9352109284365
 10
2863.272088878293
 20
-551.8412607170485
 42
-0.414213848294834
 10
2863.397172158957
 20
-551.7161773142762
 10
2864.569704066371
 20
-551.7161773142762
 42
-0.4142136762958378
 10
2864.6167354581
 20
-551.763208724297
 10
2864.6167354581
 20
-552.3469597010736
 10
2864.52292290602
 20
-552.2531471489943
 10
2864.52292290602
 20
-552.3415943281393
 10
2864.648006308793
 20
-552.466677730912
 10
2864.773089592278
 20
-552.3415942088504
 10
2864.773089592278
 20
-552.2531469104166
 10
2864.679277159486
 20
-552.3469592239186
 10
2864.679277159486
 20
-551.763208724297
 42
-0.4142162126630434
 10
2864.726308143939
 20
-551.7161773142762
 10
2865.656679005084
 20
-551.7161773142762
 42
-0.4142143103870421
 10
2865.703710294996
 20
-551.763208724297
 10
2865.703710294996
 20
-552.3469331626462
 10
2865.609897742917
 20
-552.2531206105668
 10
2865.609897742917
 20
-552.3415943281393
 10
2865.734981145689
 20
-552.466677730912
 10
2865.860064548462
 20
-552.3415943281393
 10
2865.860064548462
 20
-552.2531470297053
 10
2865.766251996383
 20
-552.3469595817846
 10
2865.766251996383
 20
-551.763208724297
 42
-0.4142143103870421
 10
2865.81328328629
 20
-551.7161773142762
 10
2866.016418801928
 20
-551.7161773142762
 10
2865.915909732875
 20
-551.3410723997512
 10
2865.852867734142
 20
-551.3410723997512
 10
2865.934442326003
 20
-551.6455129979703
  0
LWPOLYLINE
  5
26F648
330
A
100
AcDbEntity
  8
1
  6
Continuous
 62
     7
100
AcDbPolyline
 90
       25
 70
     0
 43
0.0
 10
2863.327125683275
 20
-551.3410723997512
 42
0.4142135304032805
 10
2862.951875433997
 20
-551.7163226080692
 10
2862.951875433997
 20
-551.7989246346115
 10
2863.202068483085
 20
-551.8659636441261
 10
2863.202068483085
 20
-551.8406431587829
 42
-0.1618460832075152
 10
2863.240897712538
 20
-551.7238279033005
 10
2863.204049631951
 20
-551.7139543669546
 10
2863.270561981288
 20
-551.6474418983293
 10
2863.280435040478
 20
-551.6843036971319
 42
-0.1617617281522409
 10
2863.39719798793
 20
-551.6455131172594
 10
2863.851997204033
 20
-551.6455129979703
 10
2863.826958956059
 20
-551.5520677361942
 10
2863.952042358831
 20
-551.5520677361942
 10
2863.927014608274
 20
-551.6455129979703
 10
2864.602497382092
 20
-551.6455129979703
 10
2864.577459372695
 20
-551.5520677361942
 10
2864.952709581013
 20
-551.5520677361942
 10
2864.927671333038
 20
-551.6455118050823
 10
2865.447051672108
 20
-551.6455129979703
 10
2865.422022490085
 20
-551.5520677361942
 10
2865.547105892856
 20
-551.5520677361942
 10
2865.522055238844
 20
-551.6455129979703
 10
2865.934442326003
 20
-551.6455129979703
 10
2865.852867734142
 20
-551.3410723997512
 10
2863.327125642315
 20
-551.3410723997512
  0
TEXT
  5
26F649
102
{ACAD_XDICTIONARY
360
26F64A
102
}
330
A
100
AcDbEntity
  8
1
  6
Continuous
 62
     7
100
AcDbText
 10
2894.36578709414
 20
-548.1091804273993
 30
0.0
 40
1.25
  1
SECTION VIEW
  7
ARIAL
100
AcDbText
1001
AcadAnnotative
1000
AnnotativeData
1002
{
1070
     1
1070
     0
1002
}
  0
LINE
  5
26F64D
330
A
100
AcDbEntity
  8
1
  6
Continuous
 62
     7
100
AcDbLine
 10
2894.222879438044
 20
-548.3132680016998
 30
0.0
 11
2907.566611115695
 21
-548.3132680016998
 31
0.0
  0
LWPOLYLINE
  5
26F64E
330
A
100
AcDbEntity
  8
1
  6
Continuous
 62
     7
100
AcDbPolyline
 90
       32
 70
     0
 43
0.0
 10
2902.294133458108
 20
-551.7163225185687
 10
2899.673775789194
 20
-551.7163225185687
 42
0.414213848294834
 10
2899.548644058548
 20
-551.8414543713662
 10
2899.548644058548
 20
-551.9354409735933
 42
-0.4931441222194513
 10
2899.529741866476
 20
-551.9499450729819
 10
2899.228306582217
 20
-551.8691757804682
 10
2899.228306582217
 20
-551.799101890394
 10
2899.478596541518
 20
-551.8661668669184
 10
2899.478596541518
 20
-551.8408365738915
 42
-0.1618456228241866
 10
2899.517440811155
 20
-551.7239759516484
 10
2899.480578457767
 20
-551.7140987102085
 10
2899.547116570113
 20
-551.6475604785265
 10
2899.556998704291
 20
-551.6844404934986
 42
-0.1618104599275747
 10
2899.673801628168
 20
-551.6456309503573
 10
2900.128777245662
 20
-551.6456308310198
 10
2900.10372906066
 20
-551.5521493739961
 10
2900.228860913455
 20
-551.5521493739961
 10
2900.203812711176
 20
-551.6456308310198
 10
2900.713330125104
 20
-551.6456308310198
 10
2900.688281940098
 20
-551.5521493739961
 10
2901.249841345157
 20
-551.5521493739961
 10
2901.224793079065
 20
-551.6456308310198
 10
2901.724458702975
 20
-551.6456308310198
 10
2901.699410429384
 20
-551.5521493739961
 10
2901.824542282179
 20
-551.5521493739961
 10
2901.799494028022
 20
-551.6456308310198
 10
2902.20990046623
 20
-551.6456308310198
 10
2902.17856827733
 20
-551.528697593411
 10
2902.22884228084
 20
-551.341072489252
 10
2902.294133398439
 20
-551.341072489252
 10
2902.243859457903
 20
-551.5286974144097
 10
2902.294133458108
 20
-551.716322511108
  0
LWPOLYLINE
  5
26F64F
330
A
100
AcDbEntity
  8
1
  6
Continuous
 62
     7
100
AcDbPolyline
 90
       26
 70
     0
 43
0.0
 10
2900.128777245662
 20
-551.6456308310198
 10
2900.10372906066
 20
-551.5521493739961
 10
2900.228860913455
 20
-551.5521493739961
 10
2900.203812711176
 20
-551.6456308310198
 10
2900.713330125104
 20
-551.6456308310198
 10
2900.688281940098
 20
-551.5521493739961
 10
2901.249841345157
 20
-551.5521493739961
 10
2901.224793079065
 20
-551.6456308310198
 10
2901.724458702974
 20
-551.6456308310198
 10
2901.699410429384
 20
-551.5521493739961
 10
2901.824542282179
 20
-551.5521493739961
 10
2901.799494028022
 20
-551.6456308310198
 10
2902.20990046623
 20
-551.6456308310198
 10
2902.17856827733
 20
-551.528697593411
 10
2902.22884228084
 20
-551.341072489252
 10
2899.603702181581
 20
-551.3410723102508
 42
0.4142135304029929
 10
2899.228306582217
 20
-551.7164678686376
 10
2899.228306582217
 20
-551.799101890394
 10
2899.478596541518
 20
-551.8661668669184
 42
-0.196030586453322
 10
2899.517440811152
 20
-551.723975951648
 10
2899.480578457767
 20
-551.7140987102085
 10
2899.547116570113
 20
-551.6475604785265
 10
2899.556998704291
 20
-551.6844404934986
 42
-0.1618099877716176
 10
2899.673801269015
 20
-551.6456309503577
 10
2900.128777245662
 20
-551.6456308310198
 10
2899.673801269015
 20
-551.6456308310202
  0
TEXT
  5
26F650
102
{ACAD_XDICTIONARY
360
26F651
102
}
330
A
100
AcDbEntity
  8
1
  6
Continuous
 62
     7
100
AcDbText
 10
2929.109523574741
 20
-548.1091804273993
 30
0.0
 40
1.25
  1
SECTION VIEW
  7
ARIAL
100
AcDbText
1001
AcadAnnotative
1000
AnnotativeData
1002
{
1070
     1
1070
     0
1002
}
  0
LINE
  5
26F654
330
A
100
AcDbEntity
  8
1
  6
Continuous
 62
     7
100
AcDbLine
 10
2928.966615918645
 20
-548.3132680016998
 30
0.0
 11
2942.310347596296
 21
-548.3132680016998
 31
0.0
  0
LWPOLYLINE
  5
26F655
330
A
100
AcDbEntity
  8
1
  6
Continuous
 62
     7
100
AcDbPolyline
 90
       52
 70
     1
 43
0.0
 10
2938.071681700298
 20
-551.7161775006654
 10
2938.399900543329
 20
-551.7161775006654
 10
2938.29939153392
 20
-551.3410723997512
 10
2938.236349475543
 20
-551.3410723997512
 10
2938.317924872603
 20
-551.6455133856594
 10
2937.499445152261
 20
-551.6455133856594
 10
2937.524480835526
 20
-551.5520680791496
 10
2937.399397432754
 20
-551.5520680791496
 10
2937.424432131885
 20
-551.645500368266
 10
2936.623686216851
 20
-551.645500368266
 10
2936.648723868382
 20
-551.5520680791496
 10
2936.273473660064
 20
-551.5520680791496
 10
2936.298512385194
 20
-551.6455133856594
 10
2935.466960935367
 20
-551.6455133856594
 10
2935.491992503166
 20
-551.5520680791496
 10
2935.366909100393
 20
-551.5520680791496
 10
2935.391947825523
 20
-551.6455133856594
 10
2934.777514300627
 20
-551.6455133856594
 42
0.1617615805341144
 10
2934.66075144287
 20
-551.6843038984317
 10
2934.650878860834
 20
-551.6474426737069
 10
2934.584366511498
 20
-551.7139550155876
 10
2934.621214353507
 20
-551.7238282835339
 42
0.1618458606115839
 10
2934.582385124054
 20
-551.8406435949327
 10
2934.582385124054
 20
-551.8659643747707
 10
2934.332192313545
 20
-551.7989246746853
 10
2934.332192313545
 20
-551.8689713777404
 10
2934.633510168808
 20
-551.9497092032021
 42
0.4931251892706162
 10
2934.65240480353
 20
-551.9352108091481
 10
2934.65240480353
 20
-551.8412611047374
 42
-0.4142144239615885
 10
2934.777488039653
 20
-551.7161775006654
 10
2935.728623437572
 20
-551.7161775006654
 42
-0.4142146186463779
 10
2935.775654657481
 20
-551.7632088901833
 10
2935.775654657481
 20
-552.3469601185849
 10
2935.681842105402
 20
-552.2531475366831
 10
2935.681842105402
 20
-552.341594507073
 10
2935.806925508174
 20
-552.4666779098456
 10
2935.932009030235
 20
-552.341594507073
 10
2935.932009030235
 20
-552.2531475366831
 10
2935.838196358867
 20
-552.3469601185849
 10
2935.838195643134
 20
-551.7632093114221
 42
-0.414218153415518
 10
2935.885226716687
 20
-551.7161775006626
 10
2937.915077269988
 20
-551.7161775006654
 42
-0.4142143735730687
 10
2937.962108629896
 20
-551.7632089908329
 10
2937.962108633625
 20
-552.3469601185849
 10
2937.868296081545
 20
-552.2531475366831
 10
2937.868296081545
 20
-552.2531475366831
 10
2937.868296081545
 20
-552.341594507073
 10
2937.993379484317
 20
-552.4666779098456
 10
2938.11846288709
 20
-552.341594507073
 10
2938.11846288709
 20
-552.2531475366831
 10
2938.024650335011
 20
-552.3469601185849
 10
2938.024650335011
 20
-551.763208860361
 42
-0.4138336089256154
  0
LWPOLYLINE
  5
26F656
330
A
100
AcDbEntity
  8
1
  6
Continuous
 62
     7
100
AcDbPolyline
 90
       24
 70
     1
 43
0.0
 10
2934.707442521863
 20
-551.3410723997512
 10
2938.236349475543
 20
-551.3410723997512
 10
2938.317924872603
 20
-551.6455133856594
 10
2937.499445152261
 20
-551.6455133856594
 10
2937.524480835526
 20
-551.5520680791496
 10
2937.399397432754
 20
-551.5520680791496
 10
2937.424432131885
 20
-551.645500368266
 10
2936.623686216851
 20
-551.645500368266
 10
2936.648723868382
 20
-551.5520680791496
 10
2936.273473660064
 20
-551.5520680791496
 10
2936.298512385194
 20
-551.6455133856594
 10
2935.466960935367
 20
-551.6455133856594
 10
2935.491992503166
 20
-551.5520680791496
 10
2935.366909100393
 20
-551.5520680791496
 10
2935.391947825523
 20
-551.6455133856594
 10
2934.777514300627
 20
-551.6455133856594
 42
0.1617615805341664
 10
2934.66075144287
 20
-551.6843038984317
 10
2934.650878860834
 20
-551.6474426737069
 10
2934.584366511498
 20
-551.7139550155876
 10
2934.621214353507
 20
-551.7238282835339
 42
0.1618458606114335
 10
2934.582385124054
 20
-551.8406435949327
 10
2934.582385124054
 20
-551.8659643747707
 10
2934.332192313545
 20
-551.7989246746853
 10
2934.332192313545
 20
-551.7163226006141
 42
-0.4142413430424773
  0
LWPOLYLINE
  5
26F657
330
A
100
AcDbEntity
  8
1
  6
Continuous
 62
     7
100
AcDbPolyline
 90
       47
 70
     0
 43
0.0
 10
2972.512406656861
 20
-551.7173235606303
 10
2972.840625574447
 20
-551.7173235606303
 10
2972.739809575238
 20
-551.3410723997512
 10
2972.676767576504
 20
-551.3410723997512
 10
2972.758649098521
 20
-551.6466592443247
 10
2971.956115610569
 20
-551.6466592443247
 10
2971.98115123419
 20
-551.5532139825485
 10
2971.856064491328
 20
-551.5532139825485
 10
2971.881099637795
 20
-551.6466460032646
 10
2970.999479207213
 20
-551.6466460032646
 10
2971.02451423439
 20
-551.5532139825485
 10
2970.649266531136
 20
-551.5532139825485
 10
2970.67430501769
 20
-551.6466592443247
 10
2969.811700687679
 20
-551.6466592443247
 10
2969.836732255481
 20
-551.5532139825485
 10
2969.711667998564
 20
-551.5532139825485
 10
2969.736706485118
 20
-551.6466592443247
 10
2968.873058258568
 20
-551.6466592443247
 10
2968.898096506542
 20
-551.5532139825485
 10
2968.774758537911
 20
-551.5532139825485
 10
2968.77466692409
 20
-551.7907552584713
 42
0.4141973567131085
 10
2968.794681356826
 20
-551.8107685838383
 10
2968.801799707278
 20
-551.8107685838283
 42
0.3124470944914219
 10
2968.820534910165
 20
-551.7977944922488
 42
-0.3168150938020677
 10
2968.937625961419
 20
-551.7173235606303
 10
2970.291927587649
 20
-551.7173235606158
 42
-0.4142205425353336
 10
2970.338957757571
 20
-551.7643548513623
 10
2970.338957757571
 20
-552.3481058877836
 10
2970.24514520549
 20
-552.2542933953485
 10
2970.24514520549
 20
-552.3427405148494
 10
2970.370228608265
 20
-552.4678238579776
 10
2970.495312011037
 20
-552.3427405148494
 10
2970.495312011037
 20
-552.2542931567707
 10
2970.401499458957
 20
-552.3481056492057
 10
2970.401499458957
 20
-551.7643549706511
 42
-0.4142111399331822
 10
2970.448531257968
 20
-551.7173235606255
 10
2972.355803733398
 20
-551.7173235606158
 42
-0.414220542535336
 10
2972.40283390332
 20
-551.7643548513623
 10
2972.40283390332
 20
-552.3481058877836
 10
2972.30902135124
 20
-552.2542933953485
 10
2972.30902135124
 20
-552.3427405148494
 10
2972.434104754013
 20
-552.4678238579776
 10
2972.559188156785
 20
-552.3427405148494
 10
2972.559188156785
 20
-552.2542931567707
 10
2972.465375604706
 20
-552.3481056492057
 10
2972.465375604706
 20
-551.7643549706511
 42
-0.4142111399331819
 10
2972.512407403717
 20
-551.7173235606255
  0
LWPOLYLINE
  5
26F658
330
A
100
AcDbEntity
  8
1
  6
Continuous
 62
     7
100
AcDbPolyline
 90
       21
 70
     0
 43
0.0
 10
2968.77466692409
 20
-551.5522131492761
 10
2968.77466692409
 20
-551.5532139825485
 10
2968.77466692409
 20
-551.5522131492761
 42
-0.4142134639126033
 10
2968.985807744593
 20
-551.3410723997518
 10
2972.676767576504
 20
-551.3410723997512
 10
2972.758649098521
 20
-551.6466592443247
 10
2971.956115610569
 20
-551.6466592443247
 10
2971.98115123419
 20
-551.5532139825485
 10
2971.856064491328
 20
-551.5532139825485
 10
2971.881099637795
 20
-551.6466460032646
 10
2970.999479207213
 20
-551.6466460032646
 10
2971.02451423439
 20
-551.5532139825485
 10
2970.649266531136
 20
-551.5532139825485
 10
2970.67430501769
 20
-551.6466592443247
 10
2969.811700687679
 20
-551.6466592443247
 10
2969.836732255481
 20
-551.5532139825485
 10
2969.711667998564
 20
-551.5532139825485
 10
2969.736706485118
 20
-551.6466592443247
 10
2968.873058258568
 20
-551.6466592443247
 10
2968.898096506542
 20
-551.5532139825485
 10
2968.774758537911
 20
-551.5532139825485
  0
TEXT
  5
26F659
102
{ACAD_XDICTIONARY
360
26F65A
102
}
330
A
100
AcDbEntity
  8
1
  6
Continuous
 62
     7
100
AcDbText
 10
2964.41626932702
 20
-548.1091804273993
 30
0.0
 40
1.25
  1
SECTION VIEW
  7
ARIAL
100
AcDbText
1001
AcadAnnotative
1000
AnnotativeData
1002
{
1070
     1
1070
     0
1002
}
  0
LINE
  5
26F65D
330
A
100
AcDbEntity
  8
1
  6
Continuous
 62
     7
100
AcDbLine
 10
2964.273361670925
 20
-548.3132680016998
 30
0.0
 11
2977.617093348575
 21
-548.3132680016998
 31
0.0
  0
LWPOLYLINE
  5
26F663
330
A
100
AcDbEntity
  8
1
  6
Continuous
 62
     7
100
AcDbPolyline
 90
       25
 70
     0
 43
0.0
 10
3004.455042049221
 20
-551.3410723997512
 42
0.4142135304032805
 10
3004.079791799944
 20
-551.7163226080698
 10
3004.079791799944
 20
-551.7989246346119
 10
3004.329984849031
 20
-551.8659636441266
 10
3004.329984849031
 20
-551.8406431587833
 42
-0.1618460832073357
 10
3004.368814078484
 20
-551.7238279033008
 10
3004.331965997897
 20
-551.7139543669546
 10
3004.398478347233
 20
-551.6474418983298
 10
3004.408351406424
 20
-551.6843036971323
 42
-0.1613727116421138
 10
3004.525114890555
 20
-551.645512997971
 10
3005.139547311922
 20
-551.645512997971
 10
3005.11450882537
 20
-551.5520677361946
 10
3005.239592228142
 20
-551.5520677361946
 10
3005.214560660342
 20
-551.645512997971
 10
3005.9530501234
 20
-551.645512997971
 10
3005.928011636849
 20
-551.5520677361946
 10
3006.489386057284
 20
-551.5520677361946
 10
3006.464351030107
 20
-551.6454997569109
 10
3007.172032005972
 20
-551.6454997569109
 10
3007.146996978796
 20
-551.5520677361946
 10
3007.272080381569
 20
-551.5520677361946
 10
3007.247044638659
 20
-551.645512997971
 10
3008.065524120424
 20
-551.645512997971
 10
3007.983949528564
 20
-551.3410723997512
 10
3004.455042008261
 20
-551.3410723997512
  0
LWPOLYLINE
  5
26F664
330
A
100
AcDbEntity
  8
1
  6
Continuous
 62
     7
100
AcDbPolyline
 90
       30
 70
     0
 43
0.0
 10
3004.525088647012
 20
-551.7161773142762
 10
3008.147500596349
 20
-551.7161773142762
 10
3008.046991527297
 20
-551.3410723997512
 10
3007.983949528564
 20
-551.3410723997512
 10
3008.065524120424
 20
-551.645512997971
 10
3007.247044638659
 20
-551.645512997971
 10
3007.272080381569
 20
-551.5520677361946
 10
3007.146996978796
 20
-551.5520677361946
 10
3007.172032005972
 20
-551.6454997569109
 10
3006.464351030107
 20
-551.6454997569109
 10
3006.489386057284
 20
-551.5520677361946
 10
3005.928011636849
 20
-551.5520677361946
 10
3005.9530501234
 20
-551.645512997971
 10
3005.214560660342
 20
-551.645512997971
 10
3005.239592228142
 20
-551.5520677361946
 10
3005.11450882537
 20
-551.5520677361946
 10
3005.139547311922
 20
-551.645512997971
 10
3004.525114890555
 20
-551.645512997971
 42
0.1613727116421553
 10
3004.408351406424
 20
-551.6843036971323
 10
3004.398478347233
 20
-551.6474418983298
 10
3004.331965997897
 20
-551.7139543669546
 10
3004.368814078484
 20
-551.7238279033008
 42
0.1618460832074567
 10
3004.329984849031
 20
-551.8406431587833
 10
3004.329984849031
 20
-551.8659636441266
 10
3004.079791799944
 20
-551.7989246346119
 10
3004.079791799944
 20
-551.8689713926516
 10
3004.381110370939
 20
-551.949709411958
 42
0.4931441222194513
 10
3004.400005244239
 20
-551.9352109284368
 10
3004.400005244239
 20
-551.841260717049
 42
-0.414213848294834
 10
3004.525088524906
 20
-551.7161773142762
  0
TEXT
  5
26F665
102
{ACAD_XDICTIONARY
360
26F666
102
}
330
A
100
AcDbEntity
  8
1
  6
Continuous
 62
     7
100
AcDbText
 10
2999.460092614587
 20
-548.1091804273993
 30
0.0
 40
1.25
  1
SECTION VIEW
  7
ARIAL
100
AcDbText
1001
AcadAnnotative
1000
AnnotativeData
1002
{
1070
     1
1070
     0
1002
}
  0
LINE
  5
26F669
330
A
100
AcDbEntity
  8
1
  6
Continuous
 62
     7
100
AcDbLine
 10
2999.31718495849
 20
-548.3132680016998
 30
0.0
 11
3012.660916636141
 21
-548.3132680016998
 31
0.0
  0
TEXT
  5
26F829
102
{ACAD_XDICTIONARY
360
26F82A
102
}
330
A
100
AcDbEntity
  8
1
  6
Continuous
 62
     7
100
AcDbText
 10
2719.062600766739
 20
-548.1091804273993
 30
0.0
 40
1.25
  1
SECTION VIEW
  7
ARIAL
100
AcDbText
1001
AcadAnnotative
1000
AnnotativeData
1002
{
1070
     1
1070
     0
1002
}
  0
LINE
  5
26F82D
330
A
100
AcDbEntity
  8
1
  6
Continuous
 62
     7
100
AcDbLine
 10
2718.919693110643
 20
-548.3132680016998
 30
0.0
 11
2732.263424788293
 21
-548.3132680016998
 31
0.0
  0
TEXT
  5
26F9F7
102
{ACAD_XDICTIONARY
360
26F9F8
102
}
330
A
100
AcDbEntity
  8
1
  6
Continuous
 62
     7
100
AcDbText
 10
3101.725529430817
 20
-545.4875457139993
 30
0.0
 40
2.5
  1
TYPE WP-RN2SP
  7
ARIAL
100
AcDbText
1001
AcadAnnotative
1000
AnnotativeData
1002
{
1070
     1
1070
     0
1002
}
1001
AcDbBlockRepETag
1070
     1
1071
       25
1005
0
  0
TEXT
  5
26F9FB
102
{ACAD_XDICTIONARY
360
26F9FC
102
}
330
A
100
AcDbEntity
  8
1
  6
Continuous
 62
     7
100
AcDbText
 10
3146.322673279139
 20
-545.4875457139993
 30
0.0
 40
2.5
  1
TYPE WP-RN3SP
  7
ARIAL
100
AcDbText
1001
AcadAnnotative
1000
AnnotativeData
1002
{
1070
     1
1070
     0
1002
}
1001
AcDbBlockRepETag
1070
     1
1071
       25
1005
0
  0
LINE
  5
26F9FF
330
A
100
AcDbEntity
  8
1
  6
Continuous
 62
     7
100
AcDbLine
 10
3099.54748995659
 20
-545.8201008432975
 30
0.0
 11
3131.798078262308
 21
-545.8201008432975
 31
0.0
  0
LINE
  5
26FA00
330
A
100
AcDbEntity
  8
1
  6
Continuous
 62
     7
100
AcDbLine
 10
3143.798078262308
 20
-545.8201008432975
 30
0.0
 11
3176.562544020696
 21
-545.8201008432975
 31
0.0
  0
TEXT
  5
26FA01
102
{ACAD_XDICTIONARY
360
26FA02
102
}
330
A
100
AcDbEntity
  8
1
  6
Continuous
 62
     7
100
AcDbText
 10
3110.160153270775
 20
-548.1091804273993
 30
0.0
 40
1.25
  1
SECTION VIEW
  7
ARIAL
100
AcDbText
1001
AcadAnnotative
1000
AnnotativeData
1002
{
1070
     1
1070
     0
1002
}
  0
LINE
  5
26FA05
330
A
100
AcDbEntity
  8
1
  6
Continuous
 62
     7
100
AcDbLine
 10
3110.017245614678
 20
-548.3132680016998
 30
0.0
 11
3123.360977292329
 21
-548.3132680016998
 31
0.0
  0
TEXT
  5
26FA06
102
{ACAD_XDICTIONARY
360
26FA07
102
}
330
A
100
AcDbEntity
  8
1
  6
Continuous
 62
     7
100
AcDbText
 10
3154.951429487031
 20
-548.1091804273993
 30
0.0
 40
1.25
  1
SECTION VIEW
  7
ARIAL
100
AcDbText
1001
AcadAnnotative
1000
AnnotativeData
1002
{
1070
     1
1070
     0
1002
}
  0
LINE
  5
26FA0A
330
A
100
AcDbEntity
  8
1
  6
Continuous
 62
     7
100
AcDbLine
 10
3154.808521830934
 20
-548.3132680016998
 30
0.0
 11
3168.152253508585
 21
-548.3132680016998
 31
0.0
  0
LWPOLYLINE
  5
26FA0B
330
A
100
AcDbEntity
  8
1
  6
Continuous
 62
     7
100
AcDbPolyline
 90
       38
 70
     0
 43
0.0
 10
3117.29652518629
 20
-552.0662874019769
 10
3117.233983484904
 20
-552.0662874019769
 10
3117.29652518629
 20
-552.0662874019769
 10
3117.29652518629
 20
-552.2606862029808
 10
3117.233983484904
 20
-552.2606862029808
 10
3117.233983484904
 20
-552.3232279043674
 10
3117.29652518629
 20
-552.3232279043674
 10
3117.620738862167
 20
-552.3232279043674
 10
3117.683280563552
 20
-552.3232279043674
 10
3117.683280563552
 20
-552.2606862029808
 10
3117.620738862167
 20
-552.2606862029808
 10
3117.620738862167
 20
-552.0662874019769
 10
3117.683280563552
 20
-552.0662874019769
 10
3117.683280563552
 20
-552.0032456418208
 10
3117.620738862167
 20
-552.0032456418208
 10
3117.620738862167
 20
-551.8093449909651
 10
3117.854224317915
 20
-551.8093449909651
 10
3117.854224317915
 20
-551.3410723997683
 10
3117.76115994537
 20
-551.3410723997683
 10
3117.76115994537
 20
-551.7163226080864
 10
3117.526674372081
 20
-551.7163226080864
 10
3117.526674372081
 20
-552.2301654404421
 10
3117.390582041891
 20
-552.2301654404421
 10
3117.390582041891
 20
-551.7163226080864
 10
3116.004365691082
 20
-551.7163226080864
 42
-0.5747089982856031
 10
3115.991364163072
 20
-551.6938085117256
 10
3116.037522259579
 20
-551.6138468241162
 42
0.5773624932993191
 10
3116.024523187993
 20
-551.5913308182411
 10
3115.852889873552
 20
-551.5913308191342
 10
3115.852889873552
 20
-551.8717683578334
 42
0.4141990689026159
 10
3115.884162271731
 20
-551.903039208565
 10
3115.88426605199
 20
-551.9030392091178
 42
0.2980907092719261
 10
3115.912904560393
 20
-551.8843003650143
 42
-0.2979758126454828
 10
3116.027511375298
 20
-551.8093449908416
 10
3117.29652518629
 20
-551.8093449909651
 10
3117.29652518629
 20
-552.0032456418208
 10
3117.233983484904
 20
-552.0032456418208
 10
3117.233983484904
 20
-552.0662874019769
  0
LWPOLYLINE
  5
26FA0C
330
A
100
AcDbEntity
  8
1
  6
Continuous
 62
     7
100
AcDbPolyline
 90
       29
 70
     1
 43
0.0
 10
3116.77040228476
 20
-551.4976785912405
 10
3116.750819830651
 20
-551.4346368310845
 10
3116.875903233424
 20
-551.4346368310845
 10
3116.856328413801
 20
-551.4976785912405
 10
3117.161058883874
 20
-551.4976785912405
 10
3117.136491111039
 20
-551.3410723997683
 10
3117.747150665334
 20
-551.3410723997683
 10
3117.747150665334
 20
-551.4661558025411
 10
3117.715879814641
 20
-551.4661558025411
 10
3117.715879814641
 20
-551.7113182031477
 10
3117.645833414468
 20
-551.7113182031477
 10
3117.645833414468
 20
-551.4661558025411
 10
3117.27058320615
 20
-551.4661558025411
 10
3117.27058320615
 20
-551.7114708928485
 10
3117.160570276831
 20
-551.7114708928485
 10
3117.160570276831
 20
-551.5602202926267
 10
3116.129494900765
 20
-551.5602202926267
 10
3116.129494900765
 20
-551.7113182031477
 10
3116.012694914253
 20
-551.7113182031477
 42
-0.5760570796186632
 10
3115.999754462123
 20
-551.6888041067868
 10
3116.045920193114
 20
-551.6088443277988
 42
0.5773625021722664
 10
3116.032921122327
 20
-551.5863283226154
 10
3115.853439556474
 20
-551.5863283228167
 42
-0.4084861385491111
 10
3116.103548768903
 20
-551.3410723997341
 10
3116.078985147791
 20
-551.4976785912405
 10
3116.384715735402
 20
-551.4976785912405
 10
3116.365140915779
 20
-551.4346368310845
 10
3116.490224318553
 20
-551.4346368310845
 10
3116.470641864443
 20
-551.4976785912405
  0
LWPOLYLINE
  5
26FA0D
330
A
100
AcDbEntity
  8
1
  6
Continuous
 62
     7
100
AcDbPolyline
 90
       12
 70
     1
 43
0.0
 10
3116.365140915779
 20
-551.4346368310846
 10
3116.490224318553
 20
-551.4346368310846
 10
3116.470641864443
 20
-551.4976785912407
 10
3116.77040228476
 20
-551.4976785912407
 10
3116.750819830651
 20
-551.4346368310846
 10
3116.875903233424
 20
-551.4346368310846
 10
3116.856328413801
 20
-551.4976785912407
 10
3117.161058883874
 20
-551.4976785912407
 10
3117.136491111039
 20
-551.3410723997687
 10
3116.103548768903
 20
-551.3410723997341
 10
3116.078985147791
 20
-551.4976785912407
 10
3116.384715735402
 20
-551.4976785912407
  0
LWPOLYLINE
  5
26FA0E
330
A
100
AcDbEntity
  8
1
  6
Continuous
 62
     7
100
AcDbPolyline
 90
       46
 70
     1
 43
0.0
 10
3162.774764098179
 20
-552.0345150610652
 10
3162.774764098179
 20
-551.8406158416756
 10
3163.03326776138
 20
-551.8406158416756
 10
3163.03326776138
 20
-551.3723432504786
 10
3162.940203388834
 20
-551.3723432504786
 10
3162.940203388834
 20
-551.7475934587966
 10
3162.680701516714
 20
-551.7475934587966
 10
3162.680701516714
 20
-552.2614362911528
 10
3162.544611095146
 20
-552.2614362911528
 10
3162.544611095146
 20
-551.7475934587966
 10
3160.043152988031
 20
-551.7475934587966
 42
-0.5773746924759317
 10
3160.030153368641
 20
-551.7250788852808
 10
3160.07631528239
 20
-551.6451162433606
 42
0.5772475497744746
 10
3160.063315663001
 20
-551.6226016698444
 10
3159.891680987743
 20
-551.6226016698444
 10
3159.891680987743
 20
-551.9030392085437
 42
0.4142608649986501
 10
3159.922951838437
 20
-551.934310059237
 10
3159.923047269499
 20
-551.934310059237
 42
0.2979637143253661
 10
3159.951697583205
 20
-551.9155712157245
 42
-0.2979901443462092
 10
3160.066296929406
 20
-551.8406158416756
 10
3161.345899605357
 20
-551.8406158416756
 42
-0.4141998078568572
 10
3161.37717045605
 20
-551.8718866923688
 10
3161.37717045605
 20
-552.3096098917077
 10
3161.267348388858
 20
-552.2216911620732
 10
3161.267348388858
 20
-552.3408807424008
 10
3161.423702642323
 20
-552.4660710279642
 10
3161.58005689579
 20
-552.3408807424008
 10
3161.58005689579
 20
-552.2216911620732
 10
3161.470234828597
 20
-552.3096098917077
 10
3161.470234828597
 20
-551.8718866923688
 42
-0.4139412986322043
 10
3161.50150567929
 20
-551.8406158416756
 10
3162.450548513681
 20
-551.8406158416756
 10
3162.450548513681
 20
-552.0345150610652
 10
3162.388006812295
 20
-552.0345150610652
 10
3162.388006812295
 20
-552.0975572983767
 10
3162.450548513681
 20
-552.0975572983767
 10
3162.450548513681
 20
-552.2919565765361
 10
3162.388006812295
 20
-552.2919565765361
 10
3162.388006812295
 20
-552.3544982779221
 10
3162.774764098179
 20
-552.3544982779221
 10
3162.837305799565
 20
-552.3544982779221
 10
3162.837305799565
 20
-552.2919565765361
 10
3162.774764098179
 20
-552.2919565765361
 10
3162.774764098179
 20
-552.0975572983767
 10
3162.837305799565
 20
-552.0975572983767
 10
3162.837305799565
 20
-552.0345150610652
  0
LWPOLYLINE
  5
26FA0F
330
A
100
AcDbEntity
  8
1
  6
Continuous
 62
     7
100
AcDbPolyline
 90
       37
 70
     1
 43
0.0
 10
3161.293427789729
 20
-551.4664077405642
 10
3161.324700549043
 20
-551.5289494419508
 10
3160.700597620917
 20
-551.5289494419508
 10
3160.720180075024
 20
-551.4659076817947
 10
3160.595096672251
 20
-551.4659076817947
 10
3160.614671491875
 20
-551.5289494419508
 10
3160.117228487679
 20
-551.5289494419508
 10
3160.141793471492
 20
-551.3723432504786
 42
0.4083310388202159
 10
3159.891627546349
 20
-551.6175991735268
 10
3160.071160096372
 20
-551.6175991735268
 42
-0.5978655550144695
 10
3160.084161624383
 20
-551.6401151785089
 10
3160.037995893392
 20
-551.7200749574973
 42
0.578577295525373
 10
3160.050932528279
 20
-551.742589053858
 10
3160.167736332033
 20
-551.742589053858
 10
3160.167736332033
 20
-551.591491143337
 10
3161.326448846116
 20
-551.591491143337
 10
3161.3501501049
 20
-551.742589053858
 10
3161.486872280104
 20
-551.742589053858
 10
3161.510571630266
 20
-551.591491143337
 10
3162.323056430881
 20
-551.591491143337
 10
3162.323056430881
 20
-551.7427417435583
 10
3162.400515916021
 20
-551.7427417435583
 10
3162.400515916021
 20
-551.591491143337
 10
3162.824876857932
 20
-551.591491143337
 10
3162.824876857932
 20
-551.742589053858
 10
3162.894923258105
 20
-551.742589053858
 10
3162.894923258105
 20
-551.4974266532512
 10
3162.926194108799
 20
-551.4974266532512
 10
3162.926194108799
 20
-551.3723432504786
 10
3162.80031290234
 20
-551.3723432504786
 10
3162.831585661654
 20
-551.5289494419508
 10
3162.39379375195
 20
-551.5289494419508
 10
3162.425062694022
 20
-551.4664077405642
 10
3162.299979291249
 20
-551.4664077405642
 10
3162.331252050563
 20
-551.5289494419508
 10
3161.512325653202
 20
-551.5289494419508
 10
3161.543594595274
 20
-551.4664077405642
  0
LWPOLYLINE
  5
26FA10
330
A
100
AcDbEntity
  8
1
  6
Continuous
 62
     7
100
AcDbPolyline
 90
       18
 70
     1
 43
0.0
 10
3162.39379375195
 20
-551.5289494419508
 10
3162.425062694022
 20
-551.4664077405642
 10
3162.299979291249
 20
-551.4664077405642
 10
3162.331252050563
 20
-551.5289494419508
 10
3161.512325653202
 20
-551.5289494419508
 10
3161.543594595274
 20
-551.4664077405642
 10
3161.293427789729
 20
-551.4664077405642
 10
3161.324700549043
 20
-551.5289494419508
 10
3160.700597620917
 20
-551.5289494419508
 10
3160.720180075024
 20
-551.4659076817947
 10
3160.595096672251
 20
-551.4659076817947
 10
3160.614671491875
 20
-551.5289494419508
 10
3160.117228487679
 20
-551.5289494419508
 10
3160.141793471492
 20
-551.3723432504786
 10
3160.146774575208
 20
-551.3410723997512
 10
3162.795407252378
 20
-551.3410723997512
 10
3162.80031290234
 20
-551.3723432504786
 10
3162.831585661654
 20
-551.5289494419508
  0
LINE
  5
26FA11
102
{ACAD_REACTORS
330
26FBC6
102
}
330
A
100
AcDbEntity
  8
1
  6
Continuous
 62
     7
100
AcDbLine
 10
3162.530657482127
 20
-552.0377542459591
 30
0.0
 11
3162.549513530712
 21
-552.0295030557737
 31
0.0
  0
LINE
  5
26FA12
102
{ACAD_REACTORS
330
26FBC6
102
}
330
A
100
AcDbEntity
  8
1
  6
Continuous
 62
     7
100
AcDbLine
 10
3162.530657482127
 20
-552.0377542459591
 30
0.0
 11
3162.549513530712
 21
-552.0460054361448
 31
0.0
  0
LINE
  5
26FA13
102
{ACAD_REACTORS
330
26FBC6
102
}
330
A
100
AcDbEntity
  8
1
  6
Continuous
 62
     7
100
AcDbLine
 10
3162.549513530712
 20
-552.0295030557737
 30
0.0
 11
3162.549513530712
 21
-552.0154039346798
 31
0.0
  0
LINE
  5
26FA14
102
{ACAD_REACTORS
330
26FBC6
102
}
330
A
100
AcDbEntity
  8
1
  6
Continuous
 62
     7
100
AcDbLine
 10
3162.675802898387
 20
-552.0465814554319
 30
0.0
 11
3162.675802898387
 21
-552.0324823343381
 31
0.0
  0
LINE
  5
26FA15
102
{ACAD_REACTORS
330
26FBC6
102
}
330
A
100
AcDbEntity
  8
1
  6
Continuous
 62
     7
100
AcDbLine
 10
3162.530657482127
 20
-552.0071527444944
 30
0.0
 11
3162.549513530712
 21
-551.9989015543087
 31
0.0
  0
LINE
  5
26FA16
102
{ACAD_REACTORS
330
26FBC6
102
}
330
A
100
AcDbEntity
  8
1
  6
Continuous
 62
     7
100
AcDbLine
 10
3162.530657482127
 20
-552.0071527444944
 30
0.0
 11
3162.549513530712
 21
-552.0154039346798
 31
0.0
  0
LINE
  5
26FA17
102
{ACAD_REACTORS
330
26FBC6
102
}
330
A
100
AcDbEntity
  8
1
  6
Continuous
 62
     7
100
AcDbLine
 10
3162.694655132273
 20
-552.0242311441526
 30
0.0
 11
3162.675802898387
 21
-552.0324823343381
 31
0.0
  0
LINE
  5
26FA18
102
{ACAD_REACTORS
330
26FBC6
102
}
330
A
100
AcDbEntity
  8
1
  6
Continuous
 62
     7
100
AcDbLine
 10
3162.694655132273
 20
-552.0242311441526
 30
0.0
 11
3162.675802898387
 21
-552.0159799539669
 31
0.0
  0
LINE
  5
26FA19
102
{ACAD_REACTORS
330
26FBC6
102
}
330
A
100
AcDbEntity
  8
1
  6
Continuous
 62
     7
100
AcDbLine
 10
3162.549513530712
 20
-551.9989015543087
 30
0.0
 11
3162.549513530712
 21
-551.9848024332151
 31
0.0
  0
LINE
  5
26FA1A
102
{ACAD_REACTORS
330
26FBC6
102
}
330
A
100
AcDbEntity
  8
1
  6
Continuous
 62
     7
100
AcDbLine
 10
3162.675802898387
 20
-552.0159799539669
 30
0.0
 11
3162.675802898387
 21
-552.0018808328733
 31
0.0
  0
LINE
  5
26FA1B
102
{ACAD_REACTORS
330
26FBC6
102
}
330
A
100
AcDbEntity
  8
1
  6
Continuous
 62
     7
100
AcDbLine
 10
3162.530657482127
 20
-551.9765512430296
 30
0.0
 11
3162.549513530712
 21
-551.968300052844
 31
0.0
  0
LINE
  5
26FA1C
102
{ACAD_REACTORS
330
26FBC6
102
}
330
A
100
AcDbEntity
  8
1
  6
Continuous
 62
     7
100
AcDbLine
 10
3162.530657482127
 20
-551.9765512430296
 30
0.0
 11
3162.549513530712
 21
-551.9848024332151
 31
0.0
  0
LINE
  5
26FA1D
102
{ACAD_REACTORS
330
26FBC6
102
}
330
A
100
AcDbEntity
  8
1
  6
Continuous
 62
     7
100
AcDbLine
 10
3162.694655132273
 20
-551.9936296426878
 30
0.0
 11
3162.675802898387
 21
-552.0018808328733
 31
0.0
  0
LINE
  5
26FA1E
102
{ACAD_REACTORS
330
26FBC6
102
}
330
A
100
AcDbEntity
  8
1
  6
Continuous
 62
     7
100
AcDbLine
 10
3162.694655132273
 20
-551.9936296426878
 30
0.0
 11
3162.675802898387
 21
-551.9853784525022
 31
0.0
  0
LINE
  5
26FA1F
102
{ACAD_REACTORS
330
26FBC6
102
}
330
A
100
AcDbEntity
  8
1
  6
Continuous
 62
     7
100
AcDbLine
 10
3162.549513530712
 20
-551.968300052844
 30
0.0
 11
3162.549513530712
 21
-551.9542009317501
 31
0.0
  0
LINE
  5
26FA20
102
{ACAD_REACTORS
330
26FBC6
102
}
330
A
100
AcDbEntity
  8
1
  6
Continuous
 62
     7
100
AcDbLine
 10
3162.675802898387
 20
-551.9853784525022
 30
0.0
 11
3162.675802898387
 21
-551.9712793314083
 31
0.0
  0
LINE
  5
26FA21
102
{ACAD_REACTORS
330
26FBC6
102
}
330
A
100
AcDbEntity
  8
1
  6
Continuous
 62
     7
100
AcDbLine
 10
3162.694655132273
 20
-551.9630281412228
 30
0.0
 11
3162.530657482127
 21
-551.9459497415647
 31
0.0
  0
LINE
  5
26FA22
102
{ACAD_REACTORS
330
26FBC6
102
}
330
A
100
AcDbEntity
  8
1
  6
Continuous
 62
     7
100
AcDbLine
 10
3162.530657482127
 20
-551.9459497415647
 30
0.0
 11
3162.549513530712
 21
-551.937698551379
 31
0.0
  0
LINE
  5
26FA23
102
{ACAD_REACTORS
330
26FBC6
102
}
330
A
100
AcDbEntity
  8
1
  6
Continuous
 62
     7
100
AcDbLine
 10
3162.530657482127
 20
-551.9459497415647
 30
0.0
 11
3162.549513530712
 21
-551.9542009317501
 31
0.0
  0
LINE
  5
26FA24
102
{ACAD_REACTORS
330
26FBC6
102
}
330
A
100
AcDbEntity
  8
1
  6
Continuous
 62
     7
100
AcDbLine
 10
3162.694655132273
 20
-551.9630281412228
 30
0.0
 11
3162.675802898387
 21
-551.9712793314083
 31
0.0
  0
LINE
  5
26FA25
102
{ACAD_REACTORS
330
26FBC6
102
}
330
A
100
AcDbEntity
  8
1
  6
Continuous
 62
     7
100
AcDbLine
 10
3162.694655132273
 20
-551.9630281412228
 30
0.0
 11
3162.675802898387
 21
-551.9547769510372
 31
0.0
  0
LINE
  5
26FA26
102
{ACAD_REACTORS
330
26FBC6
102
}
330
A
100
AcDbEntity
  8
1
  6
Continuous
 62
     7
100
AcDbLine
 10
3162.675802898387
 20
-551.9547769510372
 30
0.0
 11
3162.549513530712
 21
-551.937698551379
 31
0.0
  0
LINE
  5
26FA27
102
{ACAD_REACTORS
330
26FBC6
102
}
330
A
100
AcDbEntity
  8
1
  6
Continuous
 62
     7
100
AcDbLine
 10
3162.675802898387
 20
-551.9712793314083
 30
0.0
 11
3162.549513530712
 21
-551.9542009317501
 31
0.0
  0
LINE
  5
26FA28
102
{ACAD_REACTORS
330
26FBC6
102
}
330
A
100
AcDbEntity
  8
1
  6
Continuous
 62
     7
100
AcDbLine
 10
3162.549513530712
 20
-551.937698551379
 30
0.0
 11
3162.549513530712
 21
-551.9235994302853
 31
0.0
  0
LINE
  5
26FA29
102
{ACAD_REACTORS
330
26FBC6
102
}
330
A
100
AcDbEntity
  8
1
  6
Continuous
 62
     7
100
AcDbLine
 10
3162.675802898387
 20
-551.9547769510372
 30
0.0
 11
3162.675802898387
 21
-551.9406778299436
 31
0.0
  0
LINE
  5
26FA2A
102
{ACAD_REACTORS
330
26FBC6
102
}
330
A
100
AcDbEntity
  8
1
  6
Continuous
 62
     7
100
AcDbLine
 10
3162.694655132273
 20
-551.9324266397581
 30
0.0
 11
3162.530657482127
 21
-551.9153482400999
 31
0.0
  0
LINE
  5
26FA2B
102
{ACAD_REACTORS
330
26FBC6
102
}
330
A
100
AcDbEntity
  8
1
  6
Continuous
 62
     7
100
AcDbLine
 10
3162.530657482127
 20
-551.9153482400999
 30
0.0
 11
3162.549513530712
 21
-551.9070970499143
 31
0.0
  0
LINE
  5
26FA2C
102
{ACAD_REACTORS
330
26FBC6
102
}
330
A
100
AcDbEntity
  8
1
  6
Continuous
 62
     7
100
AcDbLine
 10
3162.530657482127
 20
-551.9153482400999
 30
0.0
 11
3162.549513530712
 21
-551.9235994302853
 31
0.0
  0
LINE
  5
26FA2D
102
{ACAD_REACTORS
330
26FBC6
102
}
330
A
100
AcDbEntity
  8
1
  6
Continuous
 62
     7
100
AcDbLine
 10
3162.694655132273
 20
-551.9324266397581
 30
0.0
 11
3162.675802898387
 21
-551.9406778299436
 31
0.0
  0
LINE
  5
26FA2E
102
{ACAD_REACTORS
330
26FBC6
102
}
330
A
100
AcDbEntity
  8
1
  6
Continuous
 62
     7
100
AcDbLine
 10
3162.694655132273
 20
-551.9324266397581
 30
0.0
 11
3162.675802898387
 21
-551.9241754495725
 31
0.0
  0
LINE
  5
26FA2F
102
{ACAD_REACTORS
330
26FBC6
102
}
330
A
100
AcDbEntity
  8
1
  6
Continuous
 62
     7
100
AcDbLine
 10
3162.675802898387
 20
-551.9241754495725
 30
0.0
 11
3162.549513530712
 21
-551.9070970499143
 31
0.0
  0
LINE
  5
26FA30
102
{ACAD_REACTORS
330
26FBC6
102
}
330
A
100
AcDbEntity
  8
1
  6
Continuous
 62
     7
100
AcDbLine
 10
3162.675802898387
 20
-551.9406778299436
 30
0.0
 11
3162.549513530712
 21
-551.9235994302853
 31
0.0
  0
LINE
  5
26FA31
102
{ACAD_REACTORS
330
26FBC6
102
}
330
A
100
AcDbEntity
  8
1
  6
Continuous
 62
     7
100
AcDbLine
 10
3162.549513530712
 20
-551.9070970499143
 30
0.0
 11
3162.549513530712
 21
-551.8929979288206
 31
0.0
  0
LINE
  5
26FA32
102
{ACAD_REACTORS
330
26FBC6
102
}
330
A
100
AcDbEntity
  8
1
  6
Continuous
 62
     7
100
AcDbLine
 10
3162.675802898387
 20
-551.9241754495725
 30
0.0
 11
3162.675802898387
 21
-551.9100763284788
 31
0.0
  0
LINE
  5
26FA33
102
{ACAD_REACTORS
330
26FBC6
102
}
330
A
100
AcDbEntity
  8
1
  6
Continuous
 62
     7
100
AcDbLine
 10
3162.694655132273
 20
-551.9018251382931
 30
0.0
 11
3162.530657482127
 21
-551.884746738635
 31
0.0
  0
LINE
  5
26FA34
102
{ACAD_REACTORS
330
26FBC6
102
}
330
A
100
AcDbEntity
  8
1
  6
Continuous
 62
     7
100
AcDbLine
 10
3162.530657482127
 20
-551.884746738635
 30
0.0
 11
3162.549513530712
 21
-551.8764955484495
 31
0.0
  0
LINE
  5
26FA35
102
{ACAD_REACTORS
330
26FBC6
102
}
330
A
100
AcDbEntity
  8
1
  6
Continuous
 62
     7
100
AcDbLine
 10
3162.530657482127
 20
-551.884746738635
 30
0.0
 11
3162.549513530712
 21
-551.8929979288206
 31
0.0
  0
LINE
  5
26FA36
102
{ACAD_REACTORS
330
26FBC6
102
}
330
A
100
AcDbEntity
  8
1
  6
Continuous
 62
     7
100
AcDbLine
 10
3162.694655132273
 20
-551.9018251382931
 30
0.0
 11
3162.675802898387
 21
-551.9100763284788
 31
0.0
  0
LINE
  5
26FA37
102
{ACAD_REACTORS
330
26FBC6
102
}
330
A
100
AcDbEntity
  8
1
  6
Continuous
 62
     7
100
AcDbLine
 10
3162.694655132273
 20
-551.9018251382931
 30
0.0
 11
3162.675802898387
 21
-551.8935739481077
 31
0.0
  0
LINE
  5
26FA38
102
{ACAD_REACTORS
330
26FBC6
102
}
330
A
100
AcDbEntity
  8
1
  6
Continuous
 62
     7
100
AcDbLine
 10
3162.675802898387
 20
-551.8935739481077
 30
0.0
 11
3162.549513530712
 21
-551.8764955484495
 31
0.0
  0
LINE
  5
26FA39
102
{ACAD_REACTORS
330
26FBC6
102
}
330
A
100
AcDbEntity
  8
1
  6
Continuous
 62
     7
100
AcDbLine
 10
3162.675802898387
 20
-551.9100763284788
 30
0.0
 11
3162.549513530712
 21
-551.8929979288206
 31
0.0
  0
LINE
  5
26FA3A
102
{ACAD_REACTORS
330
26FBC6
102
}
330
A
100
AcDbEntity
  8
1
  6
Continuous
 62
     7
100
AcDbLine
 10
3162.549513530712
 20
-551.8764955484495
 30
0.0
 11
3162.549513530712
 21
-551.8623964273556
 31
0.0
  0
LINE
  5
26FA3B
102
{ACAD_REACTORS
330
26FBC6
102
}
330
A
100
AcDbEntity
  8
1
  6
Continuous
 62
     7
100
AcDbLine
 10
3162.675802898387
 20
-551.8935739481077
 30
0.0
 11
3162.675802898387
 21
-551.8794748270138
 31
0.0
  0
LINE
  5
26FA3C
102
{ACAD_REACTORS
330
26FBC6
102
}
330
A
100
AcDbEntity
  8
1
  6
Continuous
 62
     7
100
AcDbLine
 10
3162.694655132273
 20
-551.8712236368283
 30
0.0
 11
3162.530657482127
 21
-551.85414523717
 31
0.0
  0
LINE
  5
26FA3D
102
{ACAD_REACTORS
330
26FBC6
102
}
330
A
100
AcDbEntity
  8
1
  6
Continuous
 62
     7
100
AcDbLine
 10
3162.530657482127
 20
-551.85414523717
 30
0.0
 11
3162.549513530712
 21
-551.8458940469846
 31
0.0
  0
LINE
  5
26FA3E
102
{ACAD_REACTORS
330
26FBC6
102
}
330
A
100
AcDbEntity
  8
1
  6
Continuous
 62
     7
100
AcDbLine
 10
3162.530657482127
 20
-551.85414523717
 30
0.0
 11
3162.549513530712
 21
-551.8623964273556
 31
0.0
  0
LINE
  5
26FA3F
102
{ACAD_REACTORS
330
26FBC6
102
}
330
A
100
AcDbEntity
  8
1
  6
Continuous
 62
     7
100
AcDbLine
 10
3162.694655132273
 20
-551.8712236368283
 30
0.0
 11
3162.675802898387
 21
-551.8794748270138
 31
0.0
  0
LINE
  5
26FA40
102
{ACAD_REACTORS
330
26FBC6
102
}
330
A
100
AcDbEntity
  8
1
  6
Continuous
 62
     7
100
AcDbLine
 10
3162.694655132273
 20
-551.8712236368283
 30
0.0
 11
3162.675802898387
 21
-551.8629724466428
 31
0.0
  0
LINE
  5
26FA41
102
{ACAD_REACTORS
330
26FBC6
102
}
330
A
100
AcDbEntity
  8
1
  6
Continuous
 62
     7
100
AcDbLine
 10
3162.675802898387
 20
-551.8629724466428
 30
0.0
 11
3162.549513530712
 21
-551.8458940469846
 31
0.0
  0
LINE
  5
26FA42
102
{ACAD_REACTORS
330
26FBC6
102
}
330
A
100
AcDbEntity
  8
1
  6
Continuous
 62
     7
100
AcDbLine
 10
3162.675802898387
 20
-551.8794748270138
 30
0.0
 11
3162.549513530712
 21
-551.8623964273556
 31
0.0
  0
LINE
  5
26FA43
102
{ACAD_REACTORS
330
26FBC6
102
}
330
A
100
AcDbEntity
  8
1
  6
Continuous
 62
     7
100
AcDbLine
 10
3162.549513530712
 20
-551.8458940469846
 30
0.0
 11
3162.549513530712
 21
-551.8317949258909
 31
0.0
  0
LINE
  5
26FA44
102
{ACAD_REACTORS
330
26FBC6
102
}
330
A
100
AcDbEntity
  8
1
  6
Continuous
 62
     7
100
AcDbLine
 10
3162.675802898387
 20
-551.8629724466428
 30
0.0
 11
3162.675802898387
 21
-551.8488733255491
 31
0.0
  0
LINE
  5
26FA45
102
{ACAD_REACTORS
330
26FBC6
102
}
330
A
100
AcDbEntity
  8
1
  6
Continuous
 62
     7
100
AcDbLine
 10
3162.694655132273
 20
-551.8406221353634
 30
0.0
 11
3162.530657482127
 21
-551.8235437357053
 31
0.0
  0
LINE
  5
26FA46
102
{ACAD_REACTORS
330
26FBC6
102
}
330
A
100
AcDbEntity
  8
1
  6
Continuous
 62
     7
100
AcDbLine
 10
3162.530657482127
 20
-551.8235437357053
 30
0.0
 11
3162.549513530712
 21
-551.8152925455198
 31
0.0
  0
LINE
  5
26FA47
102
{ACAD_REACTORS
330
26FBC6
102
}
330
A
100
AcDbEntity
  8
1
  6
Continuous
 62
     7
100
AcDbLine
 10
3162.530657482127
 20
-551.8235437357053
 30
0.0
 11
3162.549513530712
 21
-551.8317949258909
 31
0.0
  0
LINE
  5
26FA48
102
{ACAD_REACTORS
330
26FBC6
102
}
330
A
100
AcDbEntity
  8
1
  6
Continuous
 62
     7
100
AcDbLine
 10
3162.694655132273
 20
-551.8406221353634
 30
0.0
 11
3162.675802898387
 21
-551.8488733255491
 31
0.0
  0
LINE
  5
26FA49
102
{ACAD_REACTORS
330
26FBC6
102
}
330
A
100
AcDbEntity
  8
1
  6
Continuous
 62
     7
100
AcDbLine
 10
3162.694655132273
 20
-551.8406221353634
 30
0.0
 11
3162.675802898387
 21
-551.832370945178
 31
0.0
  0
LINE
  5
26FA4A
102
{ACAD_REACTORS
330
26FBC6
102
}
330
A
100
AcDbEntity
  8
1
  6
Continuous
 62
     7
100
AcDbLine
 10
3162.675802898387
 20
-551.832370945178
 30
0.0
 11
3162.549513530712
 21
-551.8152925455198
 31
0.0
  0
LINE
  5
26FA4B
102
{ACAD_REACTORS
330
26FBC6
102
}
330
A
100
AcDbEntity
  8
1
  6
Continuous
 62
     7
100
AcDbLine
 10
3162.675802898387
 20
-551.8488733255491
 30
0.0
 11
3162.549513530712
 21
-551.8317949258909
 31
0.0
  0
LINE
  5
26FA4C
102
{ACAD_REACTORS
330
26FBC6
102
}
330
A
100
AcDbEntity
  8
1
  6
Continuous
 62
     7
100
AcDbLine
 10
3162.549513530712
 20
-551.8152925455198
 30
0.0
 11
3162.549513530712
 21
-551.8011934244261
 31
0.0
  0
LINE
  5
26FA4D
102
{ACAD_REACTORS
330
26FBC6
102
}
330
A
100
AcDbEntity
  8
1
  6
Continuous
 62
     7
100
AcDbLine
 10
3162.675802898387
 20
-551.832370945178
 30
0.0
 11
3162.675802898387
 21
-551.8182718240843
 31
0.0
  0
LINE
  5
26FA4E
102
{ACAD_REACTORS
330
26FBC6
102
}
330
A
100
AcDbEntity
  8
1
  6
Continuous
 62
     7
100
AcDbLine
 10
3162.694655132273
 20
-551.8100206338987
 30
0.0
 11
3162.530657482127
 21
-551.7929422342405
 31
0.0
  0
LINE
  5
26FA4F
102
{ACAD_REACTORS
330
26FBC6
102
}
330
A
100
AcDbEntity
  8
1
  6
Continuous
 62
     7
100
AcDbLine
 10
3162.530657482127
 20
-551.7929422342405
 30
0.0
 11
3162.549513530712
 21
-551.784691044055
 31
0.0
  0
LINE
  5
26FA50
102
{ACAD_REACTORS
330
26FBC6
102
}
330
A
100
AcDbEntity
  8
1
  6
Continuous
 62
     7
100
AcDbLine
 10
3162.530657482127
 20
-551.7929422342405
 30
0.0
 11
3162.549513530712
 21
-551.8011934244261
 31
0.0
  0
LINE
  5
26FA51
102
{ACAD_REACTORS
330
26FBC6
102
}
330
A
100
AcDbEntity
  8
1
  6
Continuous
 62
     7
100
AcDbLine
 10
3162.694655132273
 20
-551.8100206338987
 30
0.0
 11
3162.675802898387
 21
-551.8182718240843
 31
0.0
  0
LINE
  5
26FA52
102
{ACAD_REACTORS
330
26FBC6
102
}
330
A
100
AcDbEntity
  8
1
  6
Continuous
 62
     7
100
AcDbLine
 10
3162.694655132273
 20
-551.8100206338987
 30
0.0
 11
3162.675802898387
 21
-551.8017694437132
 31
0.0
  0
LINE
  5
26FA53
102
{ACAD_REACTORS
330
26FBC6
102
}
330
A
100
AcDbEntity
  8
1
  6
Continuous
 62
     7
100
AcDbLine
 10
3162.675802898387
 20
-551.8017694437132
 30
0.0
 11
3162.549513530712
 21
-551.784691044055
 31
0.0
  0
LINE
  5
26FA54
102
{ACAD_REACTORS
330
26FBC6
102
}
330
A
100
AcDbEntity
  8
1
  6
Continuous
 62
     7
100
AcDbLine
 10
3162.675802898387
 20
-551.8182718240843
 30
0.0
 11
3162.549513530712
 21
-551.8011934244261
 31
0.0
  0
LINE
  5
26FA55
102
{ACAD_REACTORS
330
26FBC6
102
}
330
A
100
AcDbEntity
  8
1
  6
Continuous
 62
     7
100
AcDbLine
 10
3162.549513530712
 20
-551.784691044055
 30
0.0
 11
3162.549513530712
 21
-551.770591922961
 31
0.0
  0
LINE
  5
26FA56
102
{ACAD_REACTORS
330
26FBC6
102
}
330
A
100
AcDbEntity
  8
1
  6
Continuous
 62
     7
100
AcDbLine
 10
3162.675802898387
 20
-551.8017694437132
 30
0.0
 11
3162.675802898387
 21
-551.7876703226193
 31
0.0
  0
LINE
  5
26FA57
102
{ACAD_REACTORS
330
26FBC6
102
}
330
A
100
AcDbEntity
  8
1
  6
Continuous
 62
     7
100
AcDbLine
 10
3162.694655132273
 20
-551.7794191324338
 30
0.0
 11
3162.530657482127
 21
-551.7623407327756
 31
0.0
  0
LINE
  5
26FA58
102
{ACAD_REACTORS
330
26FBC6
102
}
330
A
100
AcDbEntity
  8
1
  6
Continuous
 62
     7
100
AcDbLine
 10
3162.530657482127
 20
-551.7623407327756
 30
0.0
 11
3162.549513530712
 21
-551.7540895425901
 31
0.0
  0
LINE
  5
26FA59
102
{ACAD_REACTORS
330
26FBC6
102
}
330
A
100
AcDbEntity
  8
1
  6
Continuous
 62
     7
100
AcDbLine
 10
3162.530657482127
 20
-551.7623407327756
 30
0.0
 11
3162.549513530712
 21
-551.770591922961
 31
0.0
  0
LINE
  5
26FA5A
102
{ACAD_REACTORS
330
26FBC6
102
}
330
A
100
AcDbEntity
  8
1
  6
Continuous
 62
     7
100
AcDbLine
 10
3162.694655132273
 20
-551.7794191324338
 30
0.0
 11
3162.675802898387
 21
-551.7876703226193
 31
0.0
  0
LINE
  5
26FA5B
102
{ACAD_REACTORS
330
26FBC6
102
}
330
A
100
AcDbEntity
  8
1
  6
Continuous
 62
     7
100
AcDbLine
 10
3162.694655132273
 20
-551.7794191324338
 30
0.0
 11
3162.675802898387
 21
-551.7711679422481
 31
0.0
  0
LINE
  5
26FA5C
102
{ACAD_REACTORS
330
26FBC6
102
}
330
A
100
AcDbEntity
  8
1
  6
Continuous
 62
     7
100
AcDbLine
 10
3162.675802898387
 20
-551.7711679422481
 30
0.0
 11
3162.549513530712
 21
-551.7540895425901
 31
0.0
  0
LINE
  5
26FA5D
102
{ACAD_REACTORS
330
26FBC6
102
}
330
A
100
AcDbEntity
  8
1
  6
Continuous
 62
     7
100
AcDbLine
 10
3162.675802898387
 20
-551.7876703226193
 30
0.0
 11
3162.549513530712
 21
-551.770591922961
 31
0.0
  0
LINE
  5
26FA5E
102
{ACAD_REACTORS
330
26FBC6
102
}
330
A
100
AcDbEntity
  8
1
  6
Continuous
 62
     7
100
AcDbLine
 10
3162.549513530712
 20
-551.7540895425901
 30
0.0
 11
3162.549513530712
 21
-551.7399904214962
 31
0.0
  0
LINE
  5
26FA5F
102
{ACAD_REACTORS
330
26FBC6
102
}
330
A
100
AcDbEntity
  8
1
  6
Continuous
 62
     7
100
AcDbLine
 10
3162.675802898387
 20
-551.7711679422481
 30
0.0
 11
3162.675802898387
 21
-551.7570688211544
 31
0.0
  0
LINE
  5
26FA60
102
{ACAD_REACTORS
330
26FBC6
102
}
330
A
100
AcDbEntity
  8
1
  6
Continuous
 62
     7
100
AcDbLine
 10
3162.694655132273
 20
-551.748817630969
 30
0.0
 11
3162.530657482127
 21
-551.7317392313108
 31
0.0
  0
LINE
  5
26FA61
102
{ACAD_REACTORS
330
26FBC6
102
}
330
A
100
AcDbEntity
  8
1
  6
Continuous
 62
     7
100
AcDbLine
 10
3162.530657482127
 20
-551.7317392313108
 30
0.0
 11
3162.549513530712
 21
-551.7234880411251
 31
0.0
  0
LINE
  5
26FA62
102
{ACAD_REACTORS
330
26FBC6
102
}
330
A
100
AcDbEntity
  8
1
  6
Continuous
 62
     7
100
AcDbLine
 10
3162.530657482127
 20
-551.7317392313108
 30
0.0
 11
3162.549513530712
 21
-551.7399904214962
 31
0.0
  0
LINE
  5
26FA63
102
{ACAD_REACTORS
330
26FBC6
102
}
330
A
100
AcDbEntity
  8
1
  6
Continuous
 62
     7
100
AcDbLine
 10
3162.694655132273
 20
-551.748817630969
 30
0.0
 11
3162.675802898387
 21
-551.7570688211544
 31
0.0
  0
LINE
  5
26FA64
102
{ACAD_REACTORS
330
26FBC6
102
}
330
A
100
AcDbEntity
  8
1
  6
Continuous
 62
     7
100
AcDbLine
 10
3162.694655132273
 20
-551.748817630969
 30
0.0
 11
3162.675802898387
 21
-551.7405664407833
 31
0.0
  0
LINE
  5
26FA65
102
{ACAD_REACTORS
330
26FBC6
102
}
330
A
100
AcDbEntity
  8
1
  6
Continuous
 62
     7
100
AcDbLine
 10
3162.675802898387
 20
-551.7405664407833
 30
0.0
 11
3162.549513530712
 21
-551.7234880411251
 31
0.0
  0
LINE
  5
26FA66
102
{ACAD_REACTORS
330
26FBC6
102
}
330
A
100
AcDbEntity
  8
1
  6
Continuous
 62
     7
100
AcDbLine
 10
3162.675802898387
 20
-551.7570688211544
 30
0.0
 11
3162.549513530712
 21
-551.7399904214962
 31
0.0
  0
LINE
  5
26FA67
102
{ACAD_REACTORS
330
26FBC6
102
}
330
A
100
AcDbEntity
  8
1
  6
Continuous
 62
     7
100
AcDbLine
 10
3162.549513530712
 20
-551.7234880411251
 30
0.0
 11
3162.549513530712
 21
-551.7093889200315
 31
0.0
  0
LINE
  5
26FA68
102
{ACAD_REACTORS
330
26FBC6
102
}
330
A
100
AcDbEntity
  8
1
  6
Continuous
 62
     7
100
AcDbLine
 10
3162.675802898387
 20
-551.7405664407833
 30
0.0
 11
3162.675802898387
 21
-551.7264673196897
 31
0.0
  0
LINE
  5
26FA69
102
{ACAD_REACTORS
330
26FBC6
102
}
330
A
100
AcDbEntity
  8
1
  6
Continuous
 62
     7
100
AcDbLine
 10
3162.694655132273
 20
-551.7182161295042
 30
0.0
 11
3162.530657482127
 21
-551.701137729846
 31
0.0
  0
LINE
  5
26FA6A
102
{ACAD_REACTORS
330
26FBC6
102
}
330
A
100
AcDbEntity
  8
1
  6
Continuous
 62
     7
100
AcDbLine
 10
3162.530657482127
 20
-551.701137729846
 30
0.0
 11
3162.549513530712
 21
-551.6928865396603
 31
0.0
  0
LINE
  5
26FA6B
102
{ACAD_REACTORS
330
26FBC6
102
}
330
A
100
AcDbEntity
  8
1
  6
Continuous
 62
     7
100
AcDbLine
 10
3162.530657482127
 20
-551.701137729846
 30
0.0
 11
3162.549513530712
 21
-551.7093889200315
 31
0.0
  0
LINE
  5
26FA6C
102
{ACAD_REACTORS
330
26FBC6
102
}
330
A
100
AcDbEntity
  8
1
  6
Continuous
 62
     7
100
AcDbLine
 10
3162.694655132273
 20
-551.7182161295042
 30
0.0
 11
3162.675802898387
 21
-551.7264673196897
 31
0.0
  0
LINE
  5
26FA6D
102
{ACAD_REACTORS
330
26FBC6
102
}
330
A
100
AcDbEntity
  8
1
  6
Continuous
 62
     7
100
AcDbLine
 10
3162.694655132273
 20
-551.7182161295042
 30
0.0
 11
3162.675802898387
 21
-551.7099649393186
 31
0.0
  0
LINE
  5
26FA6E
102
{ACAD_REACTORS
330
26FBC6
102
}
330
A
100
AcDbEntity
  8
1
  6
Continuous
 62
     7
100
AcDbLine
 10
3162.675802898387
 20
-551.7099649393186
 30
0.0
 11
3162.549513530712
 21
-551.6928865396603
 31
0.0
  0
LINE
  5
26FA6F
102
{ACAD_REACTORS
330
26FBC6
102
}
330
A
100
AcDbEntity
  8
1
  6
Continuous
 62
     7
100
AcDbLine
 10
3162.675802898387
 20
-551.7264673196897
 30
0.0
 11
3162.549513530712
 21
-551.7093889200315
 31
0.0
  0
LINE
  5
26FA70
102
{ACAD_REACTORS
330
26FBC6
102
}
330
A
100
AcDbEntity
  8
1
  6
Continuous
 62
     7
100
AcDbLine
 10
3162.549513530712
 20
-551.6928865396603
 30
0.0
 11
3162.549513530712
 21
-551.6787874185665
 31
0.0
  0
LINE
  5
26FA71
102
{ACAD_REACTORS
330
26FBC6
102
}
330
A
100
AcDbEntity
  8
1
  6
Continuous
 62
     7
100
AcDbLine
 10
3162.675802898387
 20
-551.7099649393186
 30
0.0
 11
3162.675802898387
 21
-551.6958658182248
 31
0.0
  0
LINE
  5
26FA72
102
{ACAD_REACTORS
330
26FBC6
102
}
330
A
100
AcDbEntity
  8
1
  6
Continuous
 62
     7
100
AcDbLine
 10
3162.694655132273
 20
-551.6876146280393
 30
0.0
 11
3162.530657482127
 21
-551.6705362283811
 31
0.0
  0
LINE
  5
26FA73
102
{ACAD_REACTORS
330
26FBC6
102
}
330
A
100
AcDbEntity
  8
1
  6
Continuous
 62
     7
100
AcDbLine
 10
3162.530657482127
 20
-551.6705362283811
 30
0.0
 11
3162.549513530712
 21
-551.6622850381954
 31
0.0
  0
LINE
  5
26FA74
102
{ACAD_REACTORS
330
26FBC6
102
}
330
A
100
AcDbEntity
  8
1
  6
Continuous
 62
     7
100
AcDbLine
 10
3162.530657482127
 20
-551.6705362283811
 30
0.0
 11
3162.549513530712
 21
-551.6787874185665
 31
0.0
  0
LINE
  5
26FA75
102
{ACAD_REACTORS
330
26FBC6
102
}
330
A
100
AcDbEntity
  8
1
  6
Continuous
 62
     7
100
AcDbLine
 10
3162.694655132273
 20
-551.6876146280393
 30
0.0
 11
3162.675802898387
 21
-551.6958658182248
 31
0.0
  0
LINE
  5
26FA76
102
{ACAD_REACTORS
330
26FBC6
102
}
330
A
100
AcDbEntity
  8
1
  6
Continuous
 62
     7
100
AcDbLine
 10
3162.694655132273
 20
-551.6876146280393
 30
0.0
 11
3162.675802898387
 21
-551.6793634378537
 31
0.0
  0
LINE
  5
26FA77
102
{ACAD_REACTORS
330
26FBC6
102
}
330
A
100
AcDbEntity
  8
1
  6
Continuous
 62
     7
100
AcDbLine
 10
3162.675802898387
 20
-551.6793634378537
 30
0.0
 11
3162.549513530712
 21
-551.6622850381954
 31
0.0
  0
LINE
  5
26FA78
102
{ACAD_REACTORS
330
26FBC6
102
}
330
A
100
AcDbEntity
  8
1
  6
Continuous
 62
     7
100
AcDbLine
 10
3162.675802898387
 20
-551.6958658182248
 30
0.0
 11
3162.549513530712
 21
-551.6787874185665
 31
0.0
  0
LINE
  5
26FA79
102
{ACAD_REACTORS
330
26FBC6
102
}
330
A
100
AcDbEntity
  8
1
  6
Continuous
 62
     7
100
AcDbLine
 10
3162.549513530712
 20
-551.6622850381954
 30
0.0
 11
3162.549513530712
 21
-551.6481859171018
 31
0.0
  0
LINE
  5
26FA7A
102
{ACAD_REACTORS
330
26FBC6
102
}
330
A
100
AcDbEntity
  8
1
  6
Continuous
 62
     7
100
AcDbLine
 10
3162.675802898387
 20
-551.6793634378537
 30
0.0
 11
3162.675802898387
 21
-551.6652643167599
 31
0.0
  0
LINE
  5
26FA7B
102
{ACAD_REACTORS
330
26FBC6
102
}
330
A
100
AcDbEntity
  8
1
  6
Continuous
 62
     7
100
AcDbLine
 10
3162.694655132273
 20
-551.6570131265743
 30
0.0
 11
3162.530657482127
 21
-551.6399347269163
 31
0.0
  0
LINE
  5
26FA7C
102
{ACAD_REACTORS
330
26FBC6
102
}
330
A
100
AcDbEntity
  8
1
  6
Continuous
 62
     7
100
AcDbLine
 10
3162.530657482127
 20
-551.6399347269163
 30
0.0
 11
3162.549513530712
 21
-551.6316835367306
 31
0.0
  0
LINE
  5
26FA7D
102
{ACAD_REACTORS
330
26FBC6
102
}
330
A
100
AcDbEntity
  8
1
  6
Continuous
 62
     7
100
AcDbLine
 10
3162.530657482127
 20
-551.6399347269163
 30
0.0
 11
3162.549513530712
 21
-551.6481859171018
 31
0.0
  0
LINE
  5
26FA7E
102
{ACAD_REACTORS
330
26FBC6
102
}
330
A
100
AcDbEntity
  8
1
  6
Continuous
 62
     7
100
AcDbLine
 10
3162.694655132273
 20
-551.6570131265743
 30
0.0
 11
3162.675802898387
 21
-551.6652643167599
 31
0.0
  0
LINE
  5
26FA7F
102
{ACAD_REACTORS
330
26FBC6
102
}
330
A
100
AcDbEntity
  8
1
  6
Continuous
 62
     7
100
AcDbLine
 10
3162.694655132273
 20
-551.6570131265743
 30
0.0
 11
3162.675802898387
 21
-551.6487619363888
 31
0.0
  0
LINE
  5
26FA80
102
{ACAD_REACTORS
330
26FBC6
102
}
330
A
100
AcDbEntity
  8
1
  6
Continuous
 62
     7
100
AcDbLine
 10
3162.675802898387
 20
-551.6487619363888
 30
0.0
 11
3162.549513530712
 21
-551.6316835367306
 31
0.0
  0
LINE
  5
26FA81
102
{ACAD_REACTORS
330
26FBC6
102
}
330
A
100
AcDbEntity
  8
1
  6
Continuous
 62
     7
100
AcDbLine
 10
3162.675802898387
 20
-551.6652643167599
 30
0.0
 11
3162.549513530712
 21
-551.6481859171018
 31
0.0
  0
LINE
  5
26FA82
102
{ACAD_REACTORS
330
26FBC6
102
}
330
A
100
AcDbEntity
  8
1
  6
Continuous
 62
     7
100
AcDbLine
 10
3162.549513530712
 20
-551.6316835367306
 30
0.0
 11
3162.549513530712
 21
-551.617584415637
 31
0.0
  0
LINE
  5
26FA83
102
{ACAD_REACTORS
330
26FBC6
102
}
330
A
100
AcDbEntity
  8
1
  6
Continuous
 62
     7
100
AcDbLine
 10
3162.675802898387
 20
-551.6487619363888
 30
0.0
 11
3162.675802898387
 21
-551.6346628152952
 31
0.0
  0
LINE
  5
26FA84
102
{ACAD_REACTORS
330
26FBC6
102
}
330
A
100
AcDbEntity
  8
1
  6
Continuous
 62
     7
100
AcDbLine
 10
3162.694655132273
 20
-551.6264116251096
 30
0.0
 11
3162.530657482127
 21
-551.6093332254513
 31
0.0
  0
LINE
  5
26FA85
102
{ACAD_REACTORS
330
26FBC6
102
}
330
A
100
AcDbEntity
  8
1
  6
Continuous
 62
     7
100
AcDbLine
 10
3162.530657482127
 20
-551.6093332254513
 30
0.0
 11
3162.549513530712
 21
-551.6010820352659
 31
0.0
  0
LINE
  5
26FA86
102
{ACAD_REACTORS
330
26FBC6
102
}
330
A
100
AcDbEntity
  8
1
  6
Continuous
 62
     7
100
AcDbLine
 10
3162.530657482127
 20
-551.6093332254513
 30
0.0
 11
3162.549513530712
 21
-551.617584415637
 31
0.0
  0
LINE
  5
26FA87
102
{ACAD_REACTORS
330
26FBC6
102
}
330
A
100
AcDbEntity
  8
1
  6
Continuous
 62
     7
100
AcDbLine
 10
3162.694655132273
 20
-551.6264116251096
 30
0.0
 11
3162.675802898387
 21
-551.6346628152952
 31
0.0
  0
LINE
  5
26FA88
102
{ACAD_REACTORS
330
26FBC6
102
}
330
A
100
AcDbEntity
  8
1
  6
Continuous
 62
     7
100
AcDbLine
 10
3162.694655132273
 20
-551.6264116251096
 30
0.0
 11
3162.675802898387
 21
-551.6181604349241
 31
0.0
  0
LINE
  5
26FA89
102
{ACAD_REACTORS
330
26FBC6
102
}
330
A
100
AcDbEntity
  8
1
  6
Continuous
 62
     7
100
AcDbLine
 10
3162.675802898387
 20
-551.6181604349241
 30
0.0
 11
3162.549513530712
 21
-551.6010820352659
 31
0.0
  0
LINE
  5
26FA8A
102
{ACAD_REACTORS
330
26FBC6
102
}
330
A
100
AcDbEntity
  8
1
  6
Continuous
 62
     7
100
AcDbLine
 10
3162.675802898387
 20
-551.6346628152952
 30
0.0
 11
3162.549513530712
 21
-551.617584415637
 31
0.0
  0
LINE
  5
26FA8B
102
{ACAD_REACTORS
330
26FBC6
102
}
330
A
100
AcDbEntity
  8
1
  6
Continuous
 62
     7
100
AcDbLine
 10
3162.549513530712
 20
-551.6010820352659
 30
0.0
 11
3162.549513530712
 21
-551.5869829141721
 31
0.0
  0
LINE
  5
26FA8C
102
{ACAD_REACTORS
330
26FBC6
102
}
330
A
100
AcDbEntity
  8
1
  6
Continuous
 62
     7
100
AcDbLine
 10
3162.675802898387
 20
-551.6181604349241
 30
0.0
 11
3162.675802898387
 21
-551.6040613138303
 31
0.0
  0
LINE
  5
26FA8D
102
{ACAD_REACTORS
330
26FBC6
102
}
330
A
100
AcDbEntity
  8
1
  6
Continuous
 62
     7
100
AcDbLine
 10
3162.694655132273
 20
-551.5958101236448
 30
0.0
 11
3162.530657482127
 21
-551.5787317239865
 31
0.0
  0
LINE
  5
26FA8E
102
{ACAD_REACTORS
330
26FBC6
102
}
330
A
100
AcDbEntity
  8
1
  6
Continuous
 62
     7
100
AcDbLine
 10
3162.530657482127
 20
-551.5787317239865
 30
0.0
 11
3162.549513530712
 21
-551.5704805338009
 31
0.0
  0
LINE
  5
26FA8F
102
{ACAD_REACTORS
330
26FBC6
102
}
330
A
100
AcDbEntity
  8
1
  6
Continuous
 62
     7
100
AcDbLine
 10
3162.530657482127
 20
-551.5787317239865
 30
0.0
 11
3162.549513530712
 21
-551.5869829141721
 31
0.0
  0
LINE
  5
26FA90
102
{ACAD_REACTORS
330
26FBC6
102
}
330
A
100
AcDbEntity
  8
1
  6
Continuous
 62
     7
100
AcDbLine
 10
3162.694655132273
 20
-551.5958101236448
 30
0.0
 11
3162.675802898387
 21
-551.6040613138303
 31
0.0
  0
LINE
  5
26FA91
102
{ACAD_REACTORS
330
26FBC6
102
}
330
A
100
AcDbEntity
  8
1
  6
Continuous
 62
     7
100
AcDbLine
 10
3162.694655132273
 20
-551.5958101236448
 30
0.0
 11
3162.675802898387
 21
-551.5875589334591
 31
0.0
  0
LINE
  5
26FA92
102
{ACAD_REACTORS
330
26FBC6
102
}
330
A
100
AcDbEntity
  8
1
  6
Continuous
 62
     7
100
AcDbLine
 10
3162.675802898387
 20
-551.5875589334591
 30
0.0
 11
3162.549513530712
 21
-551.5704805338009
 31
0.0
  0
LINE
  5
26FA93
102
{ACAD_REACTORS
330
26FBC6
102
}
330
A
100
AcDbEntity
  8
1
  6
Continuous
 62
     7
100
AcDbLine
 10
3162.675802898387
 20
-551.6040613138303
 30
0.0
 11
3162.549513530712
 21
-551.5869829141721
 31
0.0
  0
LINE
  5
26FA94
102
{ACAD_REACTORS
330
26FBC6
102
}
330
A
100
AcDbEntity
  8
1
  6
Continuous
 62
     7
100
AcDbLine
 10
3162.549513530712
 20
-551.5704805338009
 30
0.0
 11
3162.549513530712
 21
-551.5563814127073
 31
0.0
  0
LINE
  5
26FA95
102
{ACAD_REACTORS
330
26FBC6
102
}
330
A
100
AcDbEntity
  8
1
  6
Continuous
 62
     7
100
AcDbLine
 10
3162.675802898387
 20
-551.5875589334591
 30
0.0
 11
3162.675802898387
 21
-551.5734598123655
 31
0.0
  0
LINE
  5
26FA96
102
{ACAD_REACTORS
330
26FBC6
102
}
330
A
100
AcDbEntity
  8
1
  6
Continuous
 62
     7
100
AcDbLine
 10
3162.694655132273
 20
-551.5652086221798
 30
0.0
 11
3162.530657482127
 21
-551.5481302225216
 31
0.0
  0
LINE
  5
26FA97
102
{ACAD_REACTORS
330
26FBC6
102
}
330
A
100
AcDbEntity
  8
1
  6
Continuous
 62
     7
100
AcDbLine
 10
3162.530657482127
 20
-551.5481302225216
 30
0.0
 11
3162.549513530712
 21
-551.5398790323362
 31
0.0
  0
LINE
  5
26FA98
102
{ACAD_REACTORS
330
26FBC6
102
}
330
A
100
AcDbEntity
  8
1
  6
Continuous
 62
     7
100
AcDbLine
 10
3162.530657482127
 20
-551.5481302225216
 30
0.0
 11
3162.549513530712
 21
-551.5563814127073
 31
0.0
  0
LINE
  5
26FA99
102
{ACAD_REACTORS
330
26FBC6
102
}
330
A
100
AcDbEntity
  8
1
  6
Continuous
 62
     7
100
AcDbLine
 10
3162.694655132273
 20
-551.5652086221798
 30
0.0
 11
3162.675802898387
 21
-551.5734598123655
 31
0.0
  0
LINE
  5
26FA9A
102
{ACAD_REACTORS
330
26FBC6
102
}
330
A
100
AcDbEntity
  8
1
  6
Continuous
 62
     7
100
AcDbLine
 10
3162.694655132273
 20
-551.5652086221798
 30
0.0
 11
3162.675802898387
 21
-551.5569574319944
 31
0.0
  0
LINE
  5
26FA9B
102
{ACAD_REACTORS
330
26FBC6
102
}
330
A
100
AcDbEntity
  8
1
  6
Continuous
 62
     7
100
AcDbLine
 10
3162.675802898387
 20
-551.5569574319944
 30
0.0
 11
3162.549513530712
 21
-551.5398790323362
 31
0.0
  0
LINE
  5
26FA9C
102
{ACAD_REACTORS
330
26FBC6
102
}
330
A
100
AcDbEntity
  8
1
  6
Continuous
 62
     7
100
AcDbLine
 10
3162.675802898387
 20
-551.5734598123655
 30
0.0
 11
3162.549513530712
 21
-551.5563814127073
 31
0.0
  0
LINE
  5
26FA9D
102
{ACAD_REACTORS
330
26FBC6
102
}
330
A
100
AcDbEntity
  8
1
  6
Continuous
 62
     7
100
AcDbLine
 10
3162.549513530712
 20
-551.5398790323362
 30
0.0
 11
3162.549513530712
 21
-551.5257799112425
 31
0.0
  0
LINE
  5
26FA9E
102
{ACAD_REACTORS
330
26FBC6
102
}
330
A
100
AcDbEntity
  8
1
  6
Continuous
 62
     7
100
AcDbLine
 10
3162.675802898387
 20
-551.5569574319944
 30
0.0
 11
3162.675802898387
 21
-551.5428583109006
 31
0.0
  0
LINE
  5
26FA9F
102
{ACAD_REACTORS
330
26FBC6
102
}
330
A
100
AcDbEntity
  8
1
  6
Continuous
 62
     7
100
AcDbLine
 10
3162.694655132273
 20
-551.5346071207151
 30
0.0
 11
3162.530657482127
 21
-551.5175287210569
 31
0.0
  0
LINE
  5
26FAA0
102
{ACAD_REACTORS
330
26FBC6
102
}
330
A
100
AcDbEntity
  8
1
  6
Continuous
 62
     7
100
AcDbLine
 10
3162.530657482127
 20
-551.5175287210569
 30
0.0
 11
3162.549513530712
 21
-551.5092775308714
 31
0.0
  0
LINE
  5
26FAA1
102
{ACAD_REACTORS
330
26FBC6
102
}
330
A
100
AcDbEntity
  8
1
  6
Continuous
 62
     7
100
AcDbLine
 10
3162.530657482127
 20
-551.5175287210569
 30
0.0
 11
3162.549513530712
 21
-551.5257799112425
 31
0.0
  0
LINE
  5
26FAA2
102
{ACAD_REACTORS
330
26FBC6
102
}
330
A
100
AcDbEntity
  8
1
  6
Continuous
 62
     7
100
AcDbLine
 10
3162.694655132273
 20
-551.5346071207151
 30
0.0
 11
3162.675802898387
 21
-551.5428583109006
 31
0.0
  0
LINE
  5
26FAA3
102
{ACAD_REACTORS
330
26FBC6
102
}
330
A
100
AcDbEntity
  8
1
  6
Continuous
 62
     7
100
AcDbLine
 10
3162.694655132273
 20
-551.5346071207151
 30
0.0
 11
3162.675802898387
 21
-551.5263559305294
 31
0.0
  0
LINE
  5
26FAA4
102
{ACAD_REACTORS
330
26FBC6
102
}
330
A
100
AcDbEntity
  8
1
  6
Continuous
 62
     7
100
AcDbLine
 10
3162.675802898387
 20
-551.5263559305294
 30
0.0
 11
3162.549513530712
 21
-551.5092775308714
 31
0.0
  0
LINE
  5
26FAA5
102
{ACAD_REACTORS
330
26FBC6
102
}
330
A
100
AcDbEntity
  8
1
  6
Continuous
 62
     7
100
AcDbLine
 10
3162.675802898387
 20
-551.5428583109006
 30
0.0
 11
3162.549513530712
 21
-551.5257799112425
 31
0.0
  0
LINE
  5
26FAA6
102
{ACAD_REACTORS
330
26FBC6
102
}
330
A
100
AcDbEntity
  8
1
  6
Continuous
 62
     7
100
AcDbLine
 10
3162.533381175974
 20
-552.0687257730587
 30
0.0
 11
3162.552237224558
 21
-552.0604745828733
 31
0.0
  0
LINE
  5
26FAA7
102
{ACAD_REACTORS
330
26FBC6
102
}
330
A
100
AcDbEntity
  8
1
  6
Continuous
 62
     7
100
AcDbLine
 10
3162.691519451121
 20
-552.0548326456173
 30
0.0
 11
3162.672667217234
 21
-552.0630838358028
 31
0.0
  0
LINE
  5
26FAA8
102
{ACAD_REACTORS
330
26FBC6
102
}
330
A
100
AcDbEntity
  8
1
  6
Continuous
 62
     7
100
AcDbLine
 10
3162.691519451121
 20
-552.0548326456173
 30
0.0
 11
3162.675802898387
 21
-552.0465814554319
 31
0.0
  0
LINE
  5
26FAA9
102
{ACAD_REACTORS
330
26FBC6
102
}
330
A
100
AcDbEntity
  8
1
  6
Continuous
 62
     7
100
AcDbLine
 10
3162.685957622508
 20
-552.0847722971067
 30
0.0
 11
3162.670080852488
 21
-552.0764085733518
 31
0.0
  0
LINE
  5
26FAAA
102
{ACAD_REACTORS
330
26FBC6
102
}
330
A
100
AcDbEntity
  8
1
  6
Continuous
 62
     7
100
AcDbLine
 10
3162.685957622508
 20
-552.0847722971067
 30
0.0
 11
3162.667051982859
 21
-552.0925008737669
 31
0.0
  0
LINE
  5
26FAAB
102
{ACAD_REACTORS
330
26FBC6
102
}
330
A
100
AcDbEntity
  8
1
  6
Continuous
 62
     7
100
AcDbLine
 10
3162.670080852488
 20
-552.0764085733518
 30
0.0
 11
3162.67259092329
 21
-552.0630685770138
 31
0.0
  0
LINE
  5
26FAAC
102
{ACAD_REACTORS
330
26FBC6
102
}
330
A
100
AcDbEntity
  8
1
  6
Continuous
 62
     7
100
AcDbLine
 10
3162.680159282664
 20
-552.1147138559446
 30
0.0
 11
3162.664465618113
 21
-552.1062509500608
 31
0.0
  0
LINE
  5
26FAAD
102
{ACAD_REACTORS
330
26FBC6
102
}
330
A
100
AcDbEntity
  8
1
  6
Continuous
 62
     7
100
AcDbLine
 10
3162.680159282664
 20
-552.1147138559446
 30
0.0
 11
3162.661436748484
 21
-552.1223432504759
 31
0.0
  0
LINE
  5
26FAAE
102
{ACAD_REACTORS
330
26FBC6
102
}
330
A
100
AcDbEntity
  8
1
  6
Continuous
 62
     7
100
AcDbLine
 10
3162.667051982859
 20
-552.0925008737669
 30
0.0
 11
3162.664465618113
 21
-552.1062509500608
 31
0.0
  0
LINE
  5
26FAAF
102
{ACAD_REACTORS
330
26FBC6
102
}
330
A
100
AcDbEntity
  8
1
  6
Continuous
 62
     7
100
AcDbLine
 10
3162.661436748484
 20
-552.1223432504759
 30
0.0
 11
3162.563879680613
 21
-552.1223432504759
 31
0.0
  0
LINE
  5
26FAB0
102
{ACAD_REACTORS
330
26FBC6
102
}
330
A
100
AcDbEntity
  8
1
  6
Continuous
 62
     7
100
AcDbLine
 10
3162.533381175974
 20
-552.0687257730587
 30
0.0
 11
3162.555422496775
 21
-552.0774080240353
 31
0.0
  0
LINE
  5
26FAB1
102
{ACAD_REACTORS
330
26FBC6
102
}
330
A
100
AcDbEntity
  8
1
  6
Continuous
 62
     7
100
AcDbLine
 10
3162.538489055613
 20
-552.1000177347286
 30
0.0
 11
3162.558142375925
 21
-552.0918752634153
 31
0.0
  0
LINE
  5
26FAB2
102
{ACAD_REACTORS
330
26FBC6
102
}
330
A
100
AcDbEntity
  8
1
  6
Continuous
 62
     7
100
AcDbLine
 10
3162.538489055613
 20
-552.1000177347286
 30
0.0
 11
3162.56133146284
 21
-552.1088087045774
 31
0.0
  0
LINE
  5
26FAB3
102
{ACAD_REACTORS
330
26FBC6
102
}
330
A
100
AcDbEntity
  8
1
  6
Continuous
 62
     7
100
AcDbLine
 10
3162.56133146284
 20
-552.1088087045774
 30
0.0
 11
3162.563879680613
 21
-552.1223432504759
 31
0.0
  0
LINE
  5
26FAB4
102
{ACAD_REACTORS
330
26FBC6
102
}
330
A
100
AcDbEntity
  8
1
  6
Continuous
 62
     7
100
AcDbLine
 10
3162.555418682079
 20
-552.0774080240353
 30
0.0
 11
3162.558142375925
 21
-552.0918752634153
 31
0.0
  0
LINE
  5
26FAB5
102
{ACAD_REACTORS
330
26FBC6
102
}
330
A
100
AcDbEntity
  8
1
  6
Continuous
 62
     7
100
AcDbLine
 10
3162.552237224558
 20
-552.0604745828733
 30
0.0
 11
3162.549513530712
 21
-552.0460054361448
 31
0.0
  0
LINE
  5
26FAB6
102
{ACAD_REACTORS
330
26FBC6
102
}
330
A
100
AcDbEntity
  8
1
  6
Continuous
 62
     7
100
AcDbLine
 10
3162.694655132273
 20
-551.9936296426878
 30
0.0
 11
3162.633558940867
 21
-551.9872667276485
 31
0.0
  0
LINE
  5
26FAB7
102
{ACAD_REACTORS
330
26FBC6
102
}
330
A
100
AcDbEntity
  8
1
  6
Continuous
 62
     7
100
AcDbLine
 10
3162.675802898387
 20
-552.0018808328733
 30
0.0
 11
3162.632025432567
 21
-551.9959604227169
 31
0.0
  0
LINE
  5
26FAB8
102
{ACAD_REACTORS
330
26FBC6
102
}
330
A
100
AcDbEntity
  8
1
  6
Continuous
 62
     7
100
AcDbLine
 10
3162.530657482127
 20
-551.9765512430296
 30
0.0
 11
3162.620367717722
 21
-551.9858934366331
 31
0.0
  0
LINE
  5
26FAB9
102
{ACAD_REACTORS
330
26FBC6
102
}
330
A
100
AcDbEntity
  8
1
  6
Continuous
 62
     7
100
AcDbLine
 10
3162.549513530712
 20
-551.9848024332151
 30
0.0
 11
3162.618910503367
 21
-551.9941865884884
 31
0.0
  0
LINE
  5
26FABA
102
{ACAD_REACTORS
330
26FBC6
102
}
330
A
100
AcDbEntity
  8
1
  6
Continuous
 62
     7
100
AcDbLine
 10
3162.634867382029
 20
-551.9798433267697
 30
0.0
 11
3162.675802898387
 21
-551.9853784525022
 31
0.0
  0
LINE
  5
26FABB
102
{ACAD_REACTORS
330
26FBC6
102
}
330
A
100
AcDbEntity
  8
1
  6
Continuous
 62
     7
100
AcDbLine
 10
3162.621748638132
 20
-551.9780694925413
 30
0.0
 11
3162.549513530712
 21
-551.968300052844
 31
0.0
  0
LINE
  5
26FABC
102
{ACAD_REACTORS
330
26FBC6
102
}
330
A
100
AcDbEntity
  8
1
  6
Continuous
 62
     7
100
AcDbLine
 10
3162.549513530712
 20
-552.0154039346798
 30
0.0
 11
3162.613638591746
 21
-552.0240747415647
 31
0.0
  0
LINE
  5
26FABD
102
{ACAD_REACTORS
330
26FBC6
102
}
330
A
100
AcDbEntity
  8
1
  6
Continuous
 62
     7
100
AcDbLine
 10
3162.530657482127
 20
-552.0071527444944
 30
0.0
 11
3162.615072917918
 21
-552.015943714343
 31
0.0
  0
LINE
  5
26FABE
102
{ACAD_REACTORS
330
26FBC6
102
}
330
A
100
AcDbEntity
  8
1
  6
Continuous
 62
     7
100
AcDbLine
 10
3162.549513530712
 20
-551.9989015543087
 30
0.0
 11
3162.616480541209
 21
-552.0079576456175
 31
0.0
  0
LINE
  5
26FABF
102
{ACAD_REACTORS
330
26FBC6
102
}
330
A
100
AcDbEntity
  8
1
  6
Continuous
 62
     7
100
AcDbLine
 10
3162.675802898387
 20
-552.0159799539669
 30
0.0
 11
3162.629599285105
 21
-552.0097314798459
 31
0.0
  0
LINE
  5
26FAC0
102
{ACAD_REACTORS
330
26FBC6
102
}
330
A
100
AcDbEntity
  8
1
  6
Continuous
 62
     7
100
AcDbLine
 10
3162.694655132273
 20
-552.0242311441526
 30
0.0
 11
3162.628260326365
 21
-552.0173170053586
 31
0.0
  0
LINE
  5
26FAC1
102
{ACAD_REACTORS
330
26FBC6
102
}
330
A
100
AcDbEntity
  8
1
  6
Continuous
 62
     7
100
AcDbLine
 10
3162.675802898387
 20
-552.0324823343381
 30
0.0
 11
3162.626753520945
 21
-552.0258485757931
 31
0.0
  0
LINE
  5
26FAC2
102
{ACAD_REACTORS
330
26FBC6
102
}
330
A
100
AcDbEntity
  8
1
  6
Continuous
 62
     7
100
AcDbLine
 10
3162.549513530712
 20
-552.0295030557737
 30
0.0
 11
3162.611212444285
 21
-552.0378477060423
 31
0.0
  0
LINE
  5
26FAC3
102
{ACAD_REACTORS
330
26FBC6
102
}
330
A
100
AcDbEntity
  8
1
  6
Continuous
 62
     7
100
AcDbLine
 10
3162.530657482127
 20
-552.0377542459591
 30
0.0
 11
3162.609747600535
 21
-552.0461503946409
 31
0.0
  0
LINE
  5
26FAC4
102
{ACAD_REACTORS
330
26FBC6
102
}
330
A
100
AcDbEntity
  8
1
  6
Continuous
 62
     7
100
AcDbLine
 10
3162.549513530712
 20
-552.0460054361448
 30
0.0
 11
3162.608332347849
 21
-552.0541631662474
 31
0.0
  0
LINE
  5
26FAC5
102
{ACAD_REACTORS
330
26FBC6
102
}
330
A
100
AcDbEntity
  8
1
  6
Continuous
 62
     7
100
AcDbLine
 10
3162.552237224558
 20
-552.0604745828733
 30
0.0
 11
3162.605940532664
 21
-552.0677358591183
 31
0.0
  0
LINE
  5
26FAC6
102
{ACAD_REACTORS
330
26FBC6
102
}
330
A
100
AcDbEntity
  8
1
  6
Continuous
 62
     7
100
AcDbLine
 10
3162.670080852488
 20
-552.0764085733518
 30
0.0
 11
3162.619055461863
 21
-552.0695116006955
 31
0.0
  0
LINE
  5
26FAC7
102
{ACAD_REACTORS
330
26FBC6
102
}
330
A
100
AcDbEntity
  8
1
  6
Continuous
 62
     7
100
AcDbLine
 10
3162.672667217234
 20
-552.0630838358028
 30
0.0
 11
3162.621443462351
 21
-552.0559808694944
 31
0.0
  0
LINE
  5
26FAC8
102
{ACAD_REACTORS
330
26FBC6
102
}
330
A
100
AcDbEntity
  8
1
  6
Continuous
 62
     7
100
AcDbLine
 10
3162.691519451121
 20
-552.0548326456173
 30
0.0
 11
3162.622931194285
 21
-552.0475503885372
 31
0.0
  0
LINE
  5
26FAC9
102
{ACAD_REACTORS
330
26FBC6
102
}
330
A
100
AcDbEntity
  8
1
  6
Continuous
 62
     7
100
AcDbLine
 10
3162.675802898387
 20
-552.0465814554319
 30
0.0
 11
3162.624327373484
 21
-552.0396196329222
 31
0.0
  0
LINE
  5
26FACA
102
{ACAD_REACTORS
330
26FBC6
102
}
330
A
100
AcDbEntity
  8
1
  6
Continuous
 62
     7
100
AcDbLine
 10
3162.533381175974
 20
-552.0687257730587
 30
0.0
 11
3162.604445171336
 21
-552.0761987650022
 31
0.0
  0
LINE
  5
26FACB
102
{ACAD_REACTORS
330
26FBC6
102
}
330
A
100
AcDbEntity
  8
1
  6
Continuous
 62
     7
100
AcDbLine
 10
3162.685957622508
 20
-552.0847722971067
 30
0.0
 11
3162.617632579783
 21
-552.0775873148068
 31
0.0
  0
LINE
  5
26FACC
102
{ACAD_REACTORS
330
26FBC6
102
}
330
A
100
AcDbEntity
  8
1
  6
Continuous
 62
     7
100
AcDbLine
 10
3162.555422496775
 20
-552.0774080240353
 30
0.0
 11
3162.603094768503
 21
-552.0838548624143
 31
0.0
  0
LINE
  5
26FACD
102
{ACAD_REACTORS
330
26FBC6
102
}
330
A
100
AcDbEntity
  8
1
  6
Continuous
 62
     7
100
AcDbLine
 10
3162.667051982859
 20
-552.0925008737669
 30
0.0
 11
3162.616217327097
 21
-552.0856267892942
 31
0.0
  0
LINE
  5
26FACE
102
{ACAD_REACTORS
330
26FBC6
102
}
330
A
100
AcDbEntity
  8
1
  6
Continuous
 62
     7
100
AcDbLine
 10
3162.664465618113
 20
-552.1062509500608
 30
0.0
 11
3162.613787364939
 21
-552.0993978464231
 31
0.0
  0
LINE
  5
26FACF
102
{ACAD_REACTORS
330
26FBC6
102
}
330
A
100
AcDbEntity
  8
1
  6
Continuous
 62
     7
100
AcDbLine
 10
3162.680159282664
 20
-552.1147138559446
 30
0.0
 11
3162.612326335886
 21
-552.1076776468381
 31
0.0
  0
LINE
  5
26FAD0
102
{ACAD_REACTORS
330
26FBC6
102
}
330
A
100
AcDbEntity
  8
1
  6
Continuous
 62
     7
100
AcDbLine
 10
3162.558142375925
 20
-552.0918752634153
 30
0.0
 11
3162.600668621043
 21
-552.0976240121946
 31
0.0
  0
LINE
  5
26FAD1
102
{ACAD_REACTORS
330
26FBC6
102
}
330
A
100
AcDbEntity
  8
1
  6
Continuous
 62
     7
100
AcDbLine
 10
3162.538489055613
 20
-552.1000177347286
 30
0.0
 11
3162.599135112742
 21
-552.1063081705197
 31
0.0
  0
LINE
  5
26FAD2
102
{ACAD_REACTORS
330
26FBC6
102
}
330
A
100
AcDbEntity
  8
1
  6
Continuous
 62
     7
100
AcDbLine
 10
3162.56133146284
 20
-552.1088087045774
 30
0.0
 11
3162.59782667158
 21
-552.1137430154903
 31
0.0
  0
LINE
  5
26FAD3
102
{ACAD_REACTORS
330
26FBC6
102
}
330
A
100
AcDbEntity
  8
1
  6
Continuous
 62
     7
100
AcDbLine
 10
3162.661436748484
 20
-552.1223432504759
 30
0.0
 11
3162.610945415476
 21
-552.115516849719
 31
0.0
  0
LINE
  5
26FAD4
102
{ACAD_REACTORS
330
26FBC6
102
}
330
A
100
AcDbEntity
  8
1
  6
Continuous
 62
     7
100
AcDbLine
 10
3162.613787364939
 20
-552.0993978464231
 30
0.0
 11
3162.610945415476
 21
-552.115516849719
 31
0.0
  0
LINE
  5
26FAD5
102
{ACAD_REACTORS
330
26FBC6
102
}
330
A
100
AcDbEntity
  8
1
  6
Continuous
 62
     7
100
AcDbLine
 10
3162.600668621043
 20
-552.0976240121946
 30
0.0
 11
3162.59782667158
 21
-552.1137430154903
 31
0.0
  0
LINE
  5
26FAD6
102
{ACAD_REACTORS
330
26FBC6
102
}
330
A
100
AcDbEntity
  8
1
  6
Continuous
 62
     7
100
AcDbLine
 10
3162.619055461863
 20
-552.0695116006955
 30
0.0
 11
3162.616217327097
 21
-552.0856267892942
 31
0.0
  0
LINE
  5
26FAD7
102
{ACAD_REACTORS
330
26FBC6
102
}
330
A
100
AcDbEntity
  8
1
  6
Continuous
 62
     7
100
AcDbLine
 10
3162.605940532664
 20
-552.0677358591183
 30
0.0
 11
3162.603094768503
 21
-552.0838548624143
 31
0.0
  0
LINE
  5
26FAD8
102
{ACAD_REACTORS
330
26FBC6
102
}
330
A
100
AcDbEntity
  8
1
  6
Continuous
 62
     7
100
AcDbLine
 10
3162.624327373484
 20
-552.0396196329222
 30
0.0
 11
3162.621443462351
 21
-552.0559808694944
 31
0.0
  0
LINE
  5
26FAD9
102
{ACAD_REACTORS
330
26FBC6
102
}
330
A
100
AcDbEntity
  8
1
  6
Continuous
 62
     7
100
AcDbLine
 10
3162.611212444285
 20
-552.0378477060423
 30
0.0
 11
3162.608332347849
 21
-552.0541631662474
 31
0.0
  0
LINE
  5
26FADA
102
{ACAD_REACTORS
330
26FBC6
102
}
330
A
100
AcDbEntity
  8
1
  6
Continuous
 62
     7
100
AcDbLine
 10
3162.629599285105
 20
-552.0097314798459
 30
0.0
 11
3162.626753520945
 21
-552.0258485757931
 31
0.0
  0
LINE
  5
26FADB
102
{ACAD_REACTORS
330
26FBC6
102
}
330
A
100
AcDbEntity
  8
1
  6
Continuous
 62
     7
100
AcDbLine
 10
3162.632025432567
 20
-551.9959604227169
 30
0.0
 11
3162.634867382029
 21
-551.9798433267697
 31
0.0
  0
LINE
  5
26FADC
102
{ACAD_REACTORS
330
26FBC6
102
}
330
A
100
AcDbEntity
  8
1
  6
Continuous
 62
     7
100
AcDbLine
 10
3162.616476726511
 20
-552.0079576456175
 30
0.0
 11
3162.613638591746
 21
-552.0240747415647
 31
0.0
  0
LINE
  5
26FADD
102
{ACAD_REACTORS
330
26FBC6
102
}
330
A
100
AcDbEntity
  8
1
  6
Continuous
 62
     7
100
AcDbLine
 10
3162.618910503367
 20
-551.9941865884884
 30
0.0
 11
3162.621748638132
 21
-551.9780694925413
 31
0.0
  0
LINE
  5
26FADE
102
{ACAD_REACTORS
330
26FBC6
102
}
330
A
100
AcDbEntity
  8
1
  6
Continuous
 62
     7
100
AcDbLine
 10
3162.549513530712
 20
-551.4723436319456
 30
0.0
 11
3162.675802898387
 21
-551.4723436319456
 31
0.0
  0
LINE
  5
26FADF
102
{ACAD_REACTORS
330
26FBC6
102
}
330
A
100
AcDbEntity
  8
1
  6
Continuous
 62
     7
100
AcDbLine
 10
3162.549513530712
 20
-551.5092775308714
 30
0.0
 11
3162.549513530712
 21
-551.4723436319456
 31
0.0
  0
LINE
  5
26FAE0
102
{ACAD_REACTORS
330
26FBC6
102
}
330
A
100
AcDbEntity
  8
1
  6
Continuous
 62
     7
100
AcDbLine
 10
3162.675802898387
 20
-551.5263559305294
 30
0.0
 11
3162.675802898387
 21
-551.4723436319456
 31
0.0
  0
LINE
  5
26FAE1
102
{ACAD_REACTORS
330
26FBC6
102
}
330
A
100
AcDbEntity
  8
1
  6
Continuous
 62
     7
100
AcDbLine
 10
3162.549513530712
 20
-551.4723436319456
 30
0.0
 11
3162.455488872508
 21
-551.3809282266721
 31
0.0
  0
ARC
  5
26FAE2
102
{ACAD_REACTORS
330
26FBC6
102
}
330
A
100
AcDbEntity
  8
1
  6
Continuous
 62
     7
100
AcDbCircle
 10
3162.458972724188
 20
-551.3773426254958
 30
0.0
 40
0.0049993757936645
100
AcDbArc
 50
90.0
 51
225.8245919895779
  0
LINE
  5
26FAE3
102
{ACAD_REACTORS
330
26FBC6
102
}
330
A
100
AcDbEntity
  8
1
  6
Continuous
 62
     7
100
AcDbLine
 10
3162.675802898387
 20
-551.4723436319456
 30
0.0
 11
3162.769827556589
 21
-551.3809282266721
 31
0.0
  0
ARC
  5
26FAE4
102
{ACAD_REACTORS
330
26FBC6
102
}
330
A
100
AcDbEntity
  8
1
  6
Continuous
 62
     7
100
AcDbCircle
 10
3162.766338455208
 20
-551.3773447575669
 30
0.0
 40
0.005001507700003
100
AcDbArc
 50
314.2355606039852
 51
90.0
  0
LINE
  5
26FAE5
102
{ACAD_REACTORS
330
26FBC6
102
}
330
A
100
AcDbEntity
  8
1
  6
Continuous
 62
     7
100
AcDbLine
 10
3162.766340923289
 20
-551.3723432504758
 30
0.0
 11
3162.458975505809
 21
-551.3723432504758
 31
0.0
  0
LINE
  5
26FAE6
102
{ACAD_REACTORS
330
26FBC6
102
}
330
A
100
AcDbEntity
  8
1
  6
Continuous
 62
     7
100
AcDbLine
 10
3162.598253917674
 20
-551.3723432504758
 30
0.0
 11
3162.60185880659
 21
-551.4572069131956
 31
0.0
  0
LINE
  5
26FAE7
102
{ACAD_REACTORS
330
26FBC6
102
}
330
A
100
AcDbEntity
  8
1
  6
Continuous
 62
     7
100
AcDbLine
 10
3162.627062511424
 20
-551.3723432504758
 30
0.0
 11
3162.623457622508
 21
-551.4572069131956
 31
0.0
  0
LINE
  5
26FAE8
102
{ACAD_REACTORS
330
26FBC6
102
}
330
A
100
AcDbEntity
  8
1
  6
Continuous
 62
     7
100
AcDbLine
 10
3162.623457622508
 20
-551.4572069131956
 30
0.0
 11
3162.698660564402
 21
-551.3723432504758
 31
0.0
  0
LINE
  5
26FAE9
102
{ACAD_REACTORS
330
26FBC6
102
}
330
A
100
AcDbEntity
  8
1
  6
Continuous
 62
     7
100
AcDbLine
 10
3162.60185880659
 20
-551.4572069131956
 30
0.0
 11
3162.526655864695
 21
-551.3723432504758
 31
0.0
  0
LINE
  5
26FAEA
102
{ACAD_REACTORS
330
26FBC6
102
}
330
A
100
AcDbEntity
  8
1
  6
Continuous
 62
     7
100
AcDbLine
 10
3162.623457622508
 20
-551.4572069131956
 30
0.0
 11
3162.60185880659
 21
-551.4572069131956
 31
0.0
  0
LINE
  5
26FAEB
102
{ACAD_REACTORS
330
26FBC7
102
}
330
A
100
AcDbEntity
  8
1
  6
Continuous
 62
     7
100
AcDbLine
 10
3117.376663318474
 20
-552.0064833952518
 30
0.0
 11
3117.395519367057
 21
-551.9982322050663
 31
0.0
  0
LINE
  5
26FAEC
102
{ACAD_REACTORS
330
26FBC7
102
}
330
A
100
AcDbEntity
  8
1
  6
Continuous
 62
     7
100
AcDbLine
 10
3117.376663318474
 20
-552.0064833952518
 30
0.0
 11
3117.395519367057
 21
-552.0147345854374
 31
0.0
  0
LINE
  5
26FAED
102
{ACAD_REACTORS
330
26FBC7
102
}
330
A
100
AcDbEntity
  8
1
  6
Continuous
 62
     7
100
AcDbLine
 10
3117.395519367057
 20
-551.9982322050663
 30
0.0
 11
3117.395519367057
 21
-551.9841330839724
 31
0.0
  0
LINE
  5
26FAEE
102
{ACAD_REACTORS
330
26FBC7
102
}
330
A
100
AcDbEntity
  8
1
  6
Continuous
 62
     7
100
AcDbLine
 10
3117.521808734734
 20
-552.0153106047245
 30
0.0
 11
3117.521808734734
 21
-552.0012114836306
 31
0.0
  0
LINE
  5
26FAEF
102
{ACAD_REACTORS
330
26FBC7
102
}
330
A
100
AcDbEntity
  8
1
  6
Continuous
 62
     7
100
AcDbLine
 10
3117.376663318474
 20
-551.9758818937869
 30
0.0
 11
3117.395519367057
 21
-551.9676307036013
 31
0.0
  0
LINE
  5
26FAF0
102
{ACAD_REACTORS
330
26FBC7
102
}
330
A
100
AcDbEntity
  8
1
  6
Continuous
 62
     7
100
AcDbLine
 10
3117.376663318474
 20
-551.9758818937869
 30
0.0
 11
3117.395519367057
 21
-551.9841330839724
 31
0.0
  0
LINE
  5
26FAF1
102
{ACAD_REACTORS
330
26FBC7
102
}
330
A
100
AcDbEntity
  8
1
  6
Continuous
 62
     7
100
AcDbLine
 10
3117.54066096862
 20
-551.9929602934452
 30
0.0
 11
3117.521808734734
 21
-552.0012114836306
 31
0.0
  0
LINE
  5
26FAF2
102
{ACAD_REACTORS
330
26FBC7
102
}
330
A
100
AcDbEntity
  8
1
  6
Continuous
 62
     7
100
AcDbLine
 10
3117.54066096862
 20
-551.9929602934452
 30
0.0
 11
3117.521808734734
 21
-551.9847091032596
 31
0.0
  0
LINE
  5
26FAF3
102
{ACAD_REACTORS
330
26FBC7
102
}
330
A
100
AcDbEntity
  8
1
  6
Continuous
 62
     7
100
AcDbLine
 10
3117.395519367057
 20
-551.9676307036013
 30
0.0
 11
3117.395519367057
 21
-551.9535315825077
 31
0.0
  0
LINE
  5
26FAF4
102
{ACAD_REACTORS
330
26FBC7
102
}
330
A
100
AcDbEntity
  8
1
  6
Continuous
 62
     7
100
AcDbLine
 10
3117.521808734734
 20
-551.9847091032596
 30
0.0
 11
3117.521808734734
 21
-551.9706099821659
 31
0.0
  0
LINE
  5
26FAF5
102
{ACAD_REACTORS
330
26FBC7
102
}
330
A
100
AcDbEntity
  8
1
  6
Continuous
 62
     7
100
AcDbLine
 10
3117.376663318474
 20
-551.9452803923221
 30
0.0
 11
3117.395519367057
 21
-551.9370292021366
 31
0.0
  0
LINE
  5
26FAF6
102
{ACAD_REACTORS
330
26FBC7
102
}
330
A
100
AcDbEntity
  8
1
  6
Continuous
 62
     7
100
AcDbLine
 10
3117.376663318474
 20
-551.9452803923221
 30
0.0
 11
3117.395519367057
 21
-551.9535315825077
 31
0.0
  0
LINE
  5
26FAF7
102
{ACAD_REACTORS
330
26FBC7
102
}
330
A
100
AcDbEntity
  8
1
  6
Continuous
 62
     7
100
AcDbLine
 10
3117.54066096862
 20
-551.9623587919802
 30
0.0
 11
3117.521808734734
 21
-551.9706099821659
 31
0.0
  0
LINE
  5
26FAF8
102
{ACAD_REACTORS
330
26FBC7
102
}
330
A
100
AcDbEntity
  8
1
  6
Continuous
 62
     7
100
AcDbLine
 10
3117.54066096862
 20
-551.9623587919802
 30
0.0
 11
3117.521808734734
 21
-551.9541076017948
 31
0.0
  0
LINE
  5
26FAF9
102
{ACAD_REACTORS
330
26FBC7
102
}
330
A
100
AcDbEntity
  8
1
  6
Continuous
 62
     7
100
AcDbLine
 10
3117.395519367057
 20
-551.9370292021366
 30
0.0
 11
3117.395519367057
 21
-551.9229300810429
 31
0.0
  0
LINE
  5
26FAFA
102
{ACAD_REACTORS
330
26FBC7
102
}
330
A
100
AcDbEntity
  8
1
  6
Continuous
 62
     7
100
AcDbLine
 10
3117.521808734734
 20
-551.9541076017948
 30
0.0
 11
3117.521808734734
 21
-551.9400084807009
 31
0.0
  0
LINE
  5
26FAFB
102
{ACAD_REACTORS
330
26FBC7
102
}
330
A
100
AcDbEntity
  8
1
  6
Continuous
 62
     7
100
AcDbLine
 10
3117.54066096862
 20
-551.9317572905155
 30
0.0
 11
3117.376663318474
 21
-551.9146788908573
 31
0.0
  0
LINE
  5
26FAFC
102
{ACAD_REACTORS
330
26FBC7
102
}
330
A
100
AcDbEntity
  8
1
  6
Continuous
 62
     7
100
AcDbLine
 10
3117.376663318474
 20
-551.9146788908573
 30
0.0
 11
3117.395519367057
 21
-551.9064277006719
 31
0.0
  0
LINE
  5
26FAFD
102
{ACAD_REACTORS
330
26FBC7
102
}
330
A
100
AcDbEntity
  8
1
  6
Continuous
 62
     7
100
AcDbLine
 10
3117.376663318474
 20
-551.9146788908573
 30
0.0
 11
3117.395519367057
 21
-551.9229300810429
 31
0.0
  0
LINE
  5
26FAFE
102
{ACAD_REACTORS
330
26FBC7
102
}
330
A
100
AcDbEntity
  8
1
  6
Continuous
 62
     7
100
AcDbLine
 10
3117.54066096862
 20
-551.9317572905155
 30
0.0
 11
3117.521808734734
 21
-551.9400084807009
 31
0.0
  0
LINE
  5
26FAFF
102
{ACAD_REACTORS
330
26FBC7
102
}
330
A
100
AcDbEntity
  8
1
  6
Continuous
 62
     7
100
AcDbLine
 10
3117.54066096862
 20
-551.9317572905155
 30
0.0
 11
3117.521808734734
 21
-551.9235061003298
 31
0.0
  0
LINE
  5
26FB00
102
{ACAD_REACTORS
330
26FBC7
102
}
330
A
100
AcDbEntity
  8
1
  6
Continuous
 62
     7
100
AcDbLine
 10
3117.521808734734
 20
-551.9235061003298
 30
0.0
 11
3117.395519367057
 21
-551.9064277006719
 31
0.0
  0
LINE
  5
26FB01
102
{ACAD_REACTORS
330
26FBC7
102
}
330
A
100
AcDbEntity
  8
1
  6
Continuous
 62
     7
100
AcDbLine
 10
3117.521808734734
 20
-551.9400084807009
 30
0.0
 11
3117.395519367057
 21
-551.9229300810429
 31
0.0
  0
LINE
  5
26FB02
102
{ACAD_REACTORS
330
26FBC7
102
}
330
A
100
AcDbEntity
  8
1
  6
Continuous
 62
     7
100
AcDbLine
 10
3117.395519367057
 20
-551.9064277006719
 30
0.0
 11
3117.395519367057
 21
-551.8923285795779
 31
0.0
  0
LINE
  5
26FB03
102
{ACAD_REACTORS
330
26FBC7
102
}
330
A
100
AcDbEntity
  8
1
  6
Continuous
 62
     7
100
AcDbLine
 10
3117.521808734734
 20
-551.9235061003298
 30
0.0
 11
3117.521808734734
 21
-551.9094069792362
 31
0.0
  0
LINE
  5
26FB04
102
{ACAD_REACTORS
330
26FBC7
102
}
330
A
100
AcDbEntity
  8
1
  6
Continuous
 62
     7
100
AcDbLine
 10
3117.54066096862
 20
-551.9011557890507
 30
0.0
 11
3117.376663318474
 21
-551.8840773893924
 31
0.0
  0
LINE
  5
26FB05
102
{ACAD_REACTORS
330
26FBC7
102
}
330
A
100
AcDbEntity
  8
1
  6
Continuous
 62
     7
100
AcDbLine
 10
3117.376663318474
 20
-551.8840773893924
 30
0.0
 11
3117.395519367057
 21
-551.8758261992068
 31
0.0
  0
LINE
  5
26FB06
102
{ACAD_REACTORS
330
26FBC7
102
}
330
A
100
AcDbEntity
  8
1
  6
Continuous
 62
     7
100
AcDbLine
 10
3117.376663318474
 20
-551.8840773893924
 30
0.0
 11
3117.395519367057
 21
-551.8923285795779
 31
0.0
  0
LINE
  5
26FB07
102
{ACAD_REACTORS
330
26FBC7
102
}
330
A
100
AcDbEntity
  8
1
  6
Continuous
 62
     7
100
AcDbLine
 10
3117.54066096862
 20
-551.9011557890507
 30
0.0
 11
3117.521808734734
 21
-551.9094069792362
 31
0.0
  0
LINE
  5
26FB08
102
{ACAD_REACTORS
330
26FBC7
102
}
330
A
100
AcDbEntity
  8
1
  6
Continuous
 62
     7
100
AcDbLine
 10
3117.54066096862
 20
-551.9011557890507
 30
0.0
 11
3117.521808734734
 21
-551.8929045988651
 31
0.0
  0
LINE
  5
26FB09
102
{ACAD_REACTORS
330
26FBC7
102
}
330
A
100
AcDbEntity
  8
1
  6
Continuous
 62
     7
100
AcDbLine
 10
3117.521808734734
 20
-551.8929045988651
 30
0.0
 11
3117.395519367057
 21
-551.8758261992068
 31
0.0
  0
LINE
  5
26FB0A
102
{ACAD_REACTORS
330
26FBC7
102
}
330
A
100
AcDbEntity
  8
1
  6
Continuous
 62
     7
100
AcDbLine
 10
3117.521808734734
 20
-551.9094069792362
 30
0.0
 11
3117.395519367057
 21
-551.8923285795779
 31
0.0
  0
LINE
  5
26FB0B
102
{ACAD_REACTORS
330
26FBC7
102
}
330
A
100
AcDbEntity
  8
1
  6
Continuous
 62
     7
100
AcDbLine
 10
3117.395519367057
 20
-551.8758261992068
 30
0.0
 11
3117.395519367057
 21
-551.861727078113
 31
0.0
  0
LINE
  5
26FB0C
102
{ACAD_REACTORS
330
26FBC7
102
}
330
A
100
AcDbEntity
  8
1
  6
Continuous
 62
     7
100
AcDbLine
 10
3117.521808734734
 20
-551.8929045988651
 30
0.0
 11
3117.521808734734
 21
-551.8788054777712
 31
0.0
  0
LINE
  5
26FB0D
102
{ACAD_REACTORS
330
26FBC7
102
}
330
A
100
AcDbEntity
  8
1
  6
Continuous
 62
     7
100
AcDbLine
 10
3117.54066096862
 20
-551.8705542875858
 30
0.0
 11
3117.376663318474
 21
-551.8534758879276
 31
0.0
  0
LINE
  5
26FB0E
102
{ACAD_REACTORS
330
26FBC7
102
}
330
A
100
AcDbEntity
  8
1
  6
Continuous
 62
     7
100
AcDbLine
 10
3117.376663318474
 20
-551.8534758879276
 30
0.0
 11
3117.395519367057
 21
-551.8452246977419
 31
0.0
  0
LINE
  5
26FB0F
102
{ACAD_REACTORS
330
26FBC7
102
}
330
A
100
AcDbEntity
  8
1
  6
Continuous
 62
     7
100
AcDbLine
 10
3117.376663318474
 20
-551.8534758879276
 30
0.0
 11
3117.395519367057
 21
-551.861727078113
 31
0.0
  0
LINE
  5
26FB10
102
{ACAD_REACTORS
330
26FBC7
102
}
330
A
100
AcDbEntity
  8
1
  6
Continuous
 62
     7
100
AcDbLine
 10
3117.54066096862
 20
-551.8705542875858
 30
0.0
 11
3117.521808734734
 21
-551.8788054777712
 31
0.0
  0
LINE
  5
26FB11
102
{ACAD_REACTORS
330
26FBC7
102
}
330
A
100
AcDbEntity
  8
1
  6
Continuous
 62
     7
100
AcDbLine
 10
3117.54066096862
 20
-551.8705542875858
 30
0.0
 11
3117.521808734734
 21
-551.8623030974001
 31
0.0
  0
LINE
  5
26FB12
102
{ACAD_REACTORS
330
26FBC7
102
}
330
A
100
AcDbEntity
  8
1
  6
Continuous
 62
     7
100
AcDbLine
 10
3117.521808734734
 20
-551.8623030974001
 30
0.0
 11
3117.395519367057
 21
-551.8452246977419
 31
0.0
  0
LINE
  5
26FB13
102
{ACAD_REACTORS
330
26FBC7
102
}
330
A
100
AcDbEntity
  8
1
  6
Continuous
 62
     7
100
AcDbLine
 10
3117.521808734734
 20
-551.8788054777712
 30
0.0
 11
3117.395519367057
 21
-551.861727078113
 31
0.0
  0
LINE
  5
26FB14
102
{ACAD_REACTORS
330
26FBC7
102
}
330
A
100
AcDbEntity
  8
1
  6
Continuous
 62
     7
100
AcDbLine
 10
3117.395519367057
 20
-551.8452246977419
 30
0.0
 11
3117.395519367057
 21
-551.8311255766483
 31
0.0
  0
LINE
  5
26FB15
102
{ACAD_REACTORS
330
26FBC7
102
}
330
A
100
AcDbEntity
  8
1
  6
Continuous
 62
     7
100
AcDbLine
 10
3117.521808734734
 20
-551.8623030974001
 30
0.0
 11
3117.521808734734
 21
-551.8482039763065
 31
0.0
  0
LINE
  5
26FB16
102
{ACAD_REACTORS
330
26FBC7
102
}
330
A
100
AcDbEntity
  8
1
  6
Continuous
 62
     7
100
AcDbLine
 10
3117.54066096862
 20
-551.839952786121
 30
0.0
 11
3117.376663318474
 21
-551.8228743864628
 31
0.0
  0
LINE
  5
26FB17
102
{ACAD_REACTORS
330
26FBC7
102
}
330
A
100
AcDbEntity
  8
1
  6
Continuous
 62
     7
100
AcDbLine
 10
3117.376663318474
 20
-551.8228743864628
 30
0.0
 11
3117.395519367057
 21
-551.8146231962771
 31
0.0
  0
LINE
  5
26FB18
102
{ACAD_REACTORS
330
26FBC7
102
}
330
A
100
AcDbEntity
  8
1
  6
Continuous
 62
     7
100
AcDbLine
 10
3117.376663318474
 20
-551.8228743864628
 30
0.0
 11
3117.395519367057
 21
-551.8311255766483
 31
0.0
  0
LINE
  5
26FB19
102
{ACAD_REACTORS
330
26FBC7
102
}
330
A
100
AcDbEntity
  8
1
  6
Continuous
 62
     7
100
AcDbLine
 10
3117.54066096862
 20
-551.839952786121
 30
0.0
 11
3117.521808734734
 21
-551.8482039763065
 31
0.0
  0
LINE
  5
26FB1A
102
{ACAD_REACTORS
330
26FBC7
102
}
330
A
100
AcDbEntity
  8
1
  6
Continuous
 62
     7
100
AcDbLine
 10
3117.54066096862
 20
-551.839952786121
 30
0.0
 11
3117.521808734734
 21
-551.8317015959353
 31
0.0
  0
LINE
  5
26FB1B
102
{ACAD_REACTORS
330
26FBC7
102
}
330
A
100
AcDbEntity
  8
1
  6
Continuous
 62
     7
100
AcDbLine
 10
3117.521808734734
 20
-551.8317015959353
 30
0.0
 11
3117.395519367057
 21
-551.8146231962771
 31
0.0
  0
LINE
  5
26FB1C
102
{ACAD_REACTORS
330
26FBC7
102
}
330
A
100
AcDbEntity
  8
1
  6
Continuous
 62
     7
100
AcDbLine
 10
3117.521808734734
 20
-551.8482039763065
 30
0.0
 11
3117.395519367057
 21
-551.8311255766483
 31
0.0
  0
LINE
  5
26FB1D
102
{ACAD_REACTORS
330
26FBC7
102
}
330
A
100
AcDbEntity
  8
1
  6
Continuous
 62
     7
100
AcDbLine
 10
3117.395519367057
 20
-551.8146231962771
 30
0.0
 11
3117.395519367057
 21
-551.8005240751834
 31
0.0
  0
LINE
  5
26FB1E
102
{ACAD_REACTORS
330
26FBC7
102
}
330
A
100
AcDbEntity
  8
1
  6
Continuous
 62
     7
100
AcDbLine
 10
3117.521808734734
 20
-551.8317015959353
 30
0.0
 11
3117.521808734734
 21
-551.8176024748417
 31
0.0
  0
LINE
  5
26FB1F
102
{ACAD_REACTORS
330
26FBC7
102
}
330
A
100
AcDbEntity
  8
1
  6
Continuous
 62
     7
100
AcDbLine
 10
3117.54066096862
 20
-551.8093512846561
 30
0.0
 11
3117.376663318474
 21
-551.7922728849978
 31
0.0
  0
LINE
  5
26FB20
102
{ACAD_REACTORS
330
26FBC7
102
}
330
A
100
AcDbEntity
  8
1
  6
Continuous
 62
     7
100
AcDbLine
 10
3117.376663318474
 20
-551.7922728849978
 30
0.0
 11
3117.395519367057
 21
-551.7840216948123
 31
0.0
  0
LINE
  5
26FB21
102
{ACAD_REACTORS
330
26FBC7
102
}
330
A
100
AcDbEntity
  8
1
  6
Continuous
 62
     7
100
AcDbLine
 10
3117.376663318474
 20
-551.7922728849978
 30
0.0
 11
3117.395519367057
 21
-551.8005240751834
 31
0.0
  0
LINE
  5
26FB22
102
{ACAD_REACTORS
330
26FBC7
102
}
330
A
100
AcDbEntity
  8
1
  6
Continuous
 62
     7
100
AcDbLine
 10
3117.54066096862
 20
-551.8093512846561
 30
0.0
 11
3117.521808734734
 21
-551.8176024748417
 31
0.0
  0
LINE
  5
26FB23
102
{ACAD_REACTORS
330
26FBC7
102
}
330
A
100
AcDbEntity
  8
1
  6
Continuous
 62
     7
100
AcDbLine
 10
3117.54066096862
 20
-551.8093512846561
 30
0.0
 11
3117.521808734734
 21
-551.8011000944706
 31
0.0
  0
LINE
  5
26FB24
102
{ACAD_REACTORS
330
26FBC7
102
}
330
A
100
AcDbEntity
  8
1
  6
Continuous
 62
     7
100
AcDbLine
 10
3117.521808734734
 20
-551.8011000944706
 30
0.0
 11
3117.395519367057
 21
-551.7840216948123
 31
0.0
  0
LINE
  5
26FB25
102
{ACAD_REACTORS
330
26FBC7
102
}
330
A
100
AcDbEntity
  8
1
  6
Continuous
 62
     7
100
AcDbLine
 10
3117.521808734734
 20
-551.8176024748417
 30
0.0
 11
3117.395519367057
 21
-551.8005240751834
 31
0.0
  0
LINE
  5
26FB26
102
{ACAD_REACTORS
330
26FBC7
102
}
330
A
100
AcDbEntity
  8
1
  6
Continuous
 62
     7
100
AcDbLine
 10
3117.395519367057
 20
-551.7840216948123
 30
0.0
 11
3117.395519367057
 21
-551.7699225737186
 31
0.0
  0
LINE
  5
26FB27
102
{ACAD_REACTORS
330
26FBC7
102
}
330
A
100
AcDbEntity
  8
1
  6
Continuous
 62
     7
100
AcDbLine
 10
3117.521808734734
 20
-551.8011000944706
 30
0.0
 11
3117.521808734734
 21
-551.7870009733768
 31
0.0
  0
LINE
  5
26FB28
102
{ACAD_REACTORS
330
26FBC7
102
}
330
A
100
AcDbEntity
  8
1
  6
Continuous
 62
     7
100
AcDbLine
 10
3117.54066096862
 20
-551.7787497831911
 30
0.0
 11
3117.376663318474
 21
-551.7616713835329
 31
0.0
  0
LINE
  5
26FB29
102
{ACAD_REACTORS
330
26FBC7
102
}
330
A
100
AcDbEntity
  8
1
  6
Continuous
 62
     7
100
AcDbLine
 10
3117.376663318474
 20
-551.7616713835329
 30
0.0
 11
3117.395519367057
 21
-551.7534201933474
 31
0.0
  0
LINE
  5
26FB2A
102
{ACAD_REACTORS
330
26FBC7
102
}
330
A
100
AcDbEntity
  8
1
  6
Continuous
 62
     7
100
AcDbLine
 10
3117.376663318474
 20
-551.7616713835329
 30
0.0
 11
3117.395519367057
 21
-551.7699225737186
 31
0.0
  0
LINE
  5
26FB2B
102
{ACAD_REACTORS
330
26FBC7
102
}
330
A
100
AcDbEntity
  8
1
  6
Continuous
 62
     7
100
AcDbLine
 10
3117.54066096862
 20
-551.7787497831911
 30
0.0
 11
3117.521808734734
 21
-551.7870009733768
 31
0.0
  0
LINE
  5
26FB2C
102
{ACAD_REACTORS
330
26FBC7
102
}
330
A
100
AcDbEntity
  8
1
  6
Continuous
 62
     7
100
AcDbLine
 10
3117.54066096862
 20
-551.7787497831911
 30
0.0
 11
3117.521808734734
 21
-551.7704985930056
 31
0.0
  0
LINE
  5
26FB2D
102
{ACAD_REACTORS
330
26FBC7
102
}
330
A
100
AcDbEntity
  8
1
  6
Continuous
 62
     7
100
AcDbLine
 10
3117.521808734734
 20
-551.7704985930056
 30
0.0
 11
3117.395519367057
 21
-551.7534201933474
 31
0.0
  0
LINE
  5
26FB2E
102
{ACAD_REACTORS
330
26FBC7
102
}
330
A
100
AcDbEntity
  8
1
  6
Continuous
 62
     7
100
AcDbLine
 10
3117.521808734734
 20
-551.7870009733768
 30
0.0
 11
3117.395519367057
 21
-551.7699225737186
 31
0.0
  0
LINE
  5
26FB2F
102
{ACAD_REACTORS
330
26FBC7
102
}
330
A
100
AcDbEntity
  8
1
  6
Continuous
 62
     7
100
AcDbLine
 10
3117.395519367057
 20
-551.7534201933474
 30
0.0
 11
3117.395519367057
 21
-551.7393210722538
 31
0.0
  0
LINE
  5
26FB30
102
{ACAD_REACTORS
330
26FBC7
102
}
330
A
100
AcDbEntity
  8
1
  6
Continuous
 62
     7
100
AcDbLine
 10
3117.521808734734
 20
-551.7704985930056
 30
0.0
 11
3117.521808734734
 21
-551.756399471912
 31
0.0
  0
LINE
  5
26FB31
102
{ACAD_REACTORS
330
26FBC7
102
}
330
A
100
AcDbEntity
  8
1
  6
Continuous
 62
     7
100
AcDbLine
 10
3117.54066096862
 20
-551.7481482817263
 30
0.0
 11
3117.376663318474
 21
-551.7310698820681
 31
0.0
  0
LINE
  5
26FB32
102
{ACAD_REACTORS
330
26FBC7
102
}
330
A
100
AcDbEntity
  8
1
  6
Continuous
 62
     7
100
AcDbLine
 10
3117.376663318474
 20
-551.7310698820681
 30
0.0
 11
3117.395519367057
 21
-551.7228186918827
 31
0.0
  0
LINE
  5
26FB33
102
{ACAD_REACTORS
330
26FBC7
102
}
330
A
100
AcDbEntity
  8
1
  6
Continuous
 62
     7
100
AcDbLine
 10
3117.376663318474
 20
-551.7310698820681
 30
0.0
 11
3117.395519367057
 21
-551.7393210722538
 31
0.0
  0
LINE
  5
26FB34
102
{ACAD_REACTORS
330
26FBC7
102
}
330
A
100
AcDbEntity
  8
1
  6
Continuous
 62
     7
100
AcDbLine
 10
3117.54066096862
 20
-551.7481482817263
 30
0.0
 11
3117.521808734734
 21
-551.756399471912
 31
0.0
  0
LINE
  5
26FB35
102
{ACAD_REACTORS
330
26FBC7
102
}
330
A
100
AcDbEntity
  8
1
  6
Continuous
 62
     7
100
AcDbLine
 10
3117.54066096862
 20
-551.7481482817263
 30
0.0
 11
3117.521808734734
 21
-551.7398970915409
 31
0.0
  0
LINE
  5
26FB36
102
{ACAD_REACTORS
330
26FBC7
102
}
330
A
100
AcDbEntity
  8
1
  6
Continuous
 62
     7
100
AcDbLine
 10
3117.521808734734
 20
-551.7398970915409
 30
0.0
 11
3117.395519367057
 21
-551.7228186918827
 31
0.0
  0
LINE
  5
26FB37
102
{ACAD_REACTORS
330
26FBC7
102
}
330
A
100
AcDbEntity
  8
1
  6
Continuous
 62
     7
100
AcDbLine
 10
3117.521808734734
 20
-551.756399471912
 30
0.0
 11
3117.395519367057
 21
-551.7393210722538
 31
0.0
  0
LINE
  5
26FB38
102
{ACAD_REACTORS
330
26FBC7
102
}
330
A
100
AcDbEntity
  8
1
  6
Continuous
 62
     7
100
AcDbLine
 10
3117.395519367057
 20
-551.7228186918827
 30
0.0
 11
3117.395519367057
 21
-551.7087195707888
 31
0.0
  0
LINE
  5
26FB39
102
{ACAD_REACTORS
330
26FBC7
102
}
330
A
100
AcDbEntity
  8
1
  6
Continuous
 62
     7
100
AcDbLine
 10
3117.521808734734
 20
-551.7398970915409
 30
0.0
 11
3117.521808734734
 21
-551.7257979704472
 31
0.0
  0
LINE
  5
26FB3A
102
{ACAD_REACTORS
330
26FBC7
102
}
330
A
100
AcDbEntity
  8
1
  6
Continuous
 62
     7
100
AcDbLine
 10
3117.54066096862
 20
-551.7175467802616
 30
0.0
 11
3117.376663318474
 21
-551.7004683806034
 31
0.0
  0
LINE
  5
26FB3B
102
{ACAD_REACTORS
330
26FBC7
102
}
330
A
100
AcDbEntity
  8
1
  6
Continuous
 62
     7
100
AcDbLine
 10
3117.376663318474
 20
-551.7004683806034
 30
0.0
 11
3117.395519367057
 21
-551.6922171904177
 31
0.0
  0
LINE
  5
26FB3C
102
{ACAD_REACTORS
330
26FBC7
102
}
330
A
100
AcDbEntity
  8
1
  6
Continuous
 62
     7
100
AcDbLine
 10
3117.376663318474
 20
-551.7004683806034
 30
0.0
 11
3117.395519367057
 21
-551.7087195707888
 31
0.0
  0
LINE
  5
26FB3D
102
{ACAD_REACTORS
330
26FBC7
102
}
330
A
100
AcDbEntity
  8
1
  6
Continuous
 62
     7
100
AcDbLine
 10
3117.54066096862
 20
-551.7175467802616
 30
0.0
 11
3117.521808734734
 21
-551.7257979704472
 31
0.0
  0
LINE
  5
26FB3E
102
{ACAD_REACTORS
330
26FBC7
102
}
330
A
100
AcDbEntity
  8
1
  6
Continuous
 62
     7
100
AcDbLine
 10
3117.54066096862
 20
-551.7175467802616
 30
0.0
 11
3117.521808734734
 21
-551.7092955900761
 31
0.0
  0
LINE
  5
26FB3F
102
{ACAD_REACTORS
330
26FBC7
102
}
330
A
100
AcDbEntity
  8
1
  6
Continuous
 62
     7
100
AcDbLine
 10
3117.521808734734
 20
-551.7092955900761
 30
0.0
 11
3117.395519367057
 21
-551.6922171904177
 31
0.0
  0
LINE
  5
26FB40
102
{ACAD_REACTORS
330
26FBC7
102
}
330
A
100
AcDbEntity
  8
1
  6
Continuous
 62
     7
100
AcDbLine
 10
3117.521808734734
 20
-551.7257979704472
 30
0.0
 11
3117.395519367057
 21
-551.7087195707888
 31
0.0
  0
LINE
  5
26FB41
102
{ACAD_REACTORS
330
26FBC7
102
}
330
A
100
AcDbEntity
  8
1
  6
Continuous
 62
     7
100
AcDbLine
 10
3117.395519367057
 20
-551.6922171904177
 30
0.0
 11
3117.395519367057
 21
-551.6781180693241
 31
0.0
  0
LINE
  5
26FB42
102
{ACAD_REACTORS
330
26FBC7
102
}
330
A
100
AcDbEntity
  8
1
  6
Continuous
 62
     7
100
AcDbLine
 10
3117.521808734734
 20
-551.7092955900761
 30
0.0
 11
3117.521808734734
 21
-551.6951964689821
 31
0.0
  0
LINE
  5
26FB43
102
{ACAD_REACTORS
330
26FBC7
102
}
330
A
100
AcDbEntity
  8
1
  6
Continuous
 62
     7
100
AcDbLine
 10
3117.54066096862
 20
-551.6869452787966
 30
0.0
 11
3117.376663318474
 21
-551.6698668791384
 31
0.0
  0
LINE
  5
26FB44
102
{ACAD_REACTORS
330
26FBC7
102
}
330
A
100
AcDbEntity
  8
1
  6
Continuous
 62
     7
100
AcDbLine
 10
3117.376663318474
 20
-551.6698668791384
 30
0.0
 11
3117.395519367057
 21
-551.661615688953
 31
0.0
  0
LINE
  5
26FB45
102
{ACAD_REACTORS
330
26FBC7
102
}
330
A
100
AcDbEntity
  8
1
  6
Continuous
 62
     7
100
AcDbLine
 10
3117.376663318474
 20
-551.6698668791384
 30
0.0
 11
3117.395519367057
 21
-551.6781180693241
 31
0.0
  0
LINE
  5
26FB46
102
{ACAD_REACTORS
330
26FBC7
102
}
330
A
100
AcDbEntity
  8
1
  6
Continuous
 62
     7
100
AcDbLine
 10
3117.54066096862
 20
-551.6869452787966
 30
0.0
 11
3117.521808734734
 21
-551.6951964689821
 31
0.0
  0
LINE
  5
26FB47
102
{ACAD_REACTORS
330
26FBC7
102
}
330
A
100
AcDbEntity
  8
1
  6
Continuous
 62
     7
100
AcDbLine
 10
3117.54066096862
 20
-551.6869452787966
 30
0.0
 11
3117.521808734734
 21
-551.6786940886112
 31
0.0
  0
LINE
  5
26FB48
102
{ACAD_REACTORS
330
26FBC7
102
}
330
A
100
AcDbEntity
  8
1
  6
Continuous
 62
     7
100
AcDbLine
 10
3117.521808734734
 20
-551.6786940886112
 30
0.0
 11
3117.395519367057
 21
-551.661615688953
 31
0.0
  0
LINE
  5
26FB49
102
{ACAD_REACTORS
330
26FBC7
102
}
330
A
100
AcDbEntity
  8
1
  6
Continuous
 62
     7
100
AcDbLine
 10
3117.521808734734
 20
-551.6951964689821
 30
0.0
 11
3117.395519367057
 21
-551.6781180693241
 31
0.0
  0
LINE
  5
26FB4A
102
{ACAD_REACTORS
330
26FBC7
102
}
330
A
100
AcDbEntity
  8
1
  6
Continuous
 62
     7
100
AcDbLine
 10
3117.395519367057
 20
-551.661615688953
 30
0.0
 11
3117.395519367057
 21
-551.6475165678591
 31
0.0
  0
LINE
  5
26FB4B
102
{ACAD_REACTORS
330
26FBC7
102
}
330
A
100
AcDbEntity
  8
1
  6
Continuous
 62
     7
100
AcDbLine
 10
3117.521808734734
 20
-551.6786940886112
 30
0.0
 11
3117.521808734734
 21
-551.6645949675173
 31
0.0
  0
LINE
  5
26FB4C
102
{ACAD_REACTORS
330
26FBC7
102
}
330
A
100
AcDbEntity
  8
1
  6
Continuous
 62
     7
100
AcDbLine
 10
3117.54066096862
 20
-551.6563437773318
 30
0.0
 11
3117.376663318474
 21
-551.6392653776737
 31
0.0
  0
LINE
  5
26FB4D
102
{ACAD_REACTORS
330
26FBC7
102
}
330
A
100
AcDbEntity
  8
1
  6
Continuous
 62
     7
100
AcDbLine
 10
3117.376663318474
 20
-551.6392653776737
 30
0.0
 11
3117.395519367057
 21
-551.631014187488
 31
0.0
  0
LINE
  5
26FB4E
102
{ACAD_REACTORS
330
26FBC7
102
}
330
A
100
AcDbEntity
  8
1
  6
Continuous
 62
     7
100
AcDbLine
 10
3117.376663318474
 20
-551.6392653776737
 30
0.0
 11
3117.395519367057
 21
-551.6475165678591
 31
0.0
  0
LINE
  5
26FB4F
102
{ACAD_REACTORS
330
26FBC7
102
}
330
A
100
AcDbEntity
  8
1
  6
Continuous
 62
     7
100
AcDbLine
 10
3117.54066096862
 20
-551.6563437773318
 30
0.0
 11
3117.521808734734
 21
-551.6645949675173
 31
0.0
  0
LINE
  5
26FB50
102
{ACAD_REACTORS
330
26FBC7
102
}
330
A
100
AcDbEntity
  8
1
  6
Continuous
 62
     7
100
AcDbLine
 10
3117.54066096862
 20
-551.6563437773318
 30
0.0
 11
3117.521808734734
 21
-551.6480925871462
 31
0.0
  0
LINE
  5
26FB51
102
{ACAD_REACTORS
330
26FBC7
102
}
330
A
100
AcDbEntity
  8
1
  6
Continuous
 62
     7
100
AcDbLine
 10
3117.521808734734
 20
-551.6480925871462
 30
0.0
 11
3117.395519367057
 21
-551.631014187488
 31
0.0
  0
LINE
  5
26FB52
102
{ACAD_REACTORS
330
26FBC7
102
}
330
A
100
AcDbEntity
  8
1
  6
Continuous
 62
     7
100
AcDbLine
 10
3117.521808734734
 20
-551.6645949675173
 30
0.0
 11
3117.395519367057
 21
-551.6475165678591
 31
0.0
  0
LINE
  5
26FB53
102
{ACAD_REACTORS
330
26FBC7
102
}
330
A
100
AcDbEntity
  8
1
  6
Continuous
 62
     7
100
AcDbLine
 10
3117.395519367057
 20
-551.631014187488
 30
0.0
 11
3117.395519367057
 21
-551.6169150663943
 31
0.0
  0
LINE
  5
26FB54
102
{ACAD_REACTORS
330
26FBC7
102
}
330
A
100
AcDbEntity
  8
1
  6
Continuous
 62
     7
100
AcDbLine
 10
3117.521808734734
 20
-551.6480925871462
 30
0.0
 11
3117.521808734734
 21
-551.6339934660526
 31
0.0
  0
LINE
  5
26FB55
102
{ACAD_REACTORS
330
26FBC7
102
}
330
A
100
AcDbEntity
  8
1
  6
Continuous
 62
     7
100
AcDbLine
 10
3117.54066096862
 20
-551.6257422758672
 30
0.0
 11
3117.376663318474
 21
-551.6086638762089
 31
0.0
  0
LINE
  5
26FB56
102
{ACAD_REACTORS
330
26FBC7
102
}
330
A
100
AcDbEntity
  8
1
  6
Continuous
 62
     7
100
AcDbLine
 10
3117.376663318474
 20
-551.6086638762089
 30
0.0
 11
3117.395519367057
 21
-551.6004126860233
 31
0.0
  0
LINE
  5
26FB57
102
{ACAD_REACTORS
330
26FBC7
102
}
330
A
100
AcDbEntity
  8
1
  6
Continuous
 62
     7
100
AcDbLine
 10
3117.376663318474
 20
-551.6086638762089
 30
0.0
 11
3117.395519367057
 21
-551.6169150663943
 31
0.0
  0
LINE
  5
26FB58
102
{ACAD_REACTORS
330
26FBC7
102
}
330
A
100
AcDbEntity
  8
1
  6
Continuous
 62
     7
100
AcDbLine
 10
3117.54066096862
 20
-551.6257422758672
 30
0.0
 11
3117.521808734734
 21
-551.6339934660526
 31
0.0
  0
LINE
  5
26FB59
102
{ACAD_REACTORS
330
26FBC7
102
}
330
A
100
AcDbEntity
  8
1
  6
Continuous
 62
     7
100
AcDbLine
 10
3117.54066096862
 20
-551.6257422758672
 30
0.0
 11
3117.521808734734
 21
-551.6174910856815
 31
0.0
  0
LINE
  5
26FB5A
102
{ACAD_REACTORS
330
26FBC7
102
}
330
A
100
AcDbEntity
  8
1
  6
Continuous
 62
     7
100
AcDbLine
 10
3117.521808734734
 20
-551.6174910856815
 30
0.0
 11
3117.395519367057
 21
-551.6004126860233
 31
0.0
  0
LINE
  5
26FB5B
102
{ACAD_REACTORS
330
26FBC7
102
}
330
A
100
AcDbEntity
  8
1
  6
Continuous
 62
     7
100
AcDbLine
 10
3117.521808734734
 20
-551.6339934660526
 30
0.0
 11
3117.395519367057
 21
-551.6169150663943
 31
0.0
  0
LINE
  5
26FB5C
102
{ACAD_REACTORS
330
26FBC7
102
}
330
A
100
AcDbEntity
  8
1
  6
Continuous
 62
     7
100
AcDbLine
 10
3117.395519367057
 20
-551.6004126860233
 30
0.0
 11
3117.395519367057
 21
-551.5863135649294
 31
0.0
  0
LINE
  5
26FB5D
102
{ACAD_REACTORS
330
26FBC7
102
}
330
A
100
AcDbEntity
  8
1
  6
Continuous
 62
     7
100
AcDbLine
 10
3117.521808734734
 20
-551.6174910856815
 30
0.0
 11
3117.521808734734
 21
-551.6033919645876
 31
0.0
  0
LINE
  5
26FB5E
102
{ACAD_REACTORS
330
26FBC7
102
}
330
A
100
AcDbEntity
  8
1
  6
Continuous
 62
     7
100
AcDbLine
 10
3117.54066096862
 20
-551.5951407744021
 30
0.0
 11
3117.376663318474
 21
-551.578062374744
 31
0.0
  0
LINE
  5
26FB5F
102
{ACAD_REACTORS
330
26FBC7
102
}
330
A
100
AcDbEntity
  8
1
  6
Continuous
 62
     7
100
AcDbLine
 10
3117.376663318474
 20
-551.578062374744
 30
0.0
 11
3117.395519367057
 21
-551.5698111845583
 31
0.0
  0
LINE
  5
26FB60
102
{ACAD_REACTORS
330
26FBC7
102
}
330
A
100
AcDbEntity
  8
1
  6
Continuous
 62
     7
100
AcDbLine
 10
3117.376663318474
 20
-551.578062374744
 30
0.0
 11
3117.395519367057
 21
-551.5863135649294
 31
0.0
  0
LINE
  5
26FB61
102
{ACAD_REACTORS
330
26FBC7
102
}
330
A
100
AcDbEntity
  8
1
  6
Continuous
 62
     7
100
AcDbLine
 10
3117.54066096862
 20
-551.5951407744021
 30
0.0
 11
3117.521808734734
 21
-551.6033919645876
 31
0.0
  0
LINE
  5
26FB62
102
{ACAD_REACTORS
330
26FBC7
102
}
330
A
100
AcDbEntity
  8
1
  6
Continuous
 62
     7
100
AcDbLine
 10
3117.54066096862
 20
-551.5951407744021
 30
0.0
 11
3117.521808734734
 21
-551.5868895842165
 31
0.0
  0
LINE
  5
26FB63
102
{ACAD_REACTORS
330
26FBC7
102
}
330
A
100
AcDbEntity
  8
1
  6
Continuous
 62
     7
100
AcDbLine
 10
3117.521808734734
 20
-551.5868895842165
 30
0.0
 11
3117.395519367057
 21
-551.5698111845583
 31
0.0
  0
LINE
  5
26FB64
102
{ACAD_REACTORS
330
26FBC7
102
}
330
A
100
AcDbEntity
  8
1
  6
Continuous
 62
     7
100
AcDbLine
 10
3117.521808734734
 20
-551.6033919645876
 30
0.0
 11
3117.395519367057
 21
-551.5863135649294
 31
0.0
  0
LINE
  5
26FB65
102
{ACAD_REACTORS
330
26FBC7
102
}
330
A
100
AcDbEntity
  8
1
  6
Continuous
 62
     7
100
AcDbLine
 10
3117.395519367057
 20
-551.5698111845583
 30
0.0
 11
3117.395519367057
 21
-551.5557120634646
 31
0.0
  0
LINE
  5
26FB66
102
{ACAD_REACTORS
330
26FBC7
102
}
330
A
100
AcDbEntity
  8
1
  6
Continuous
 62
     7
100
AcDbLine
 10
3117.521808734734
 20
-551.5868895842165
 30
0.0
 11
3117.521808734734
 21
-551.5727904631228
 31
0.0
  0
LINE
  5
26FB67
102
{ACAD_REACTORS
330
26FBC7
102
}
330
A
100
AcDbEntity
  8
1
  6
Continuous
 62
     7
100
AcDbLine
 10
3117.54066096862
 20
-551.5645392729374
 30
0.0
 11
3117.376663318474
 21
-551.5474608732792
 31
0.0
  0
LINE
  5
26FB68
102
{ACAD_REACTORS
330
26FBC7
102
}
330
A
100
AcDbEntity
  8
1
  6
Continuous
 62
     7
100
AcDbLine
 10
3117.376663318474
 20
-551.5474608732792
 30
0.0
 11
3117.395519367057
 21
-551.5392096830936
 31
0.0
  0
LINE
  5
26FB69
102
{ACAD_REACTORS
330
26FBC7
102
}
330
A
100
AcDbEntity
  8
1
  6
Continuous
 62
     7
100
AcDbLine
 10
3117.376663318474
 20
-551.5474608732792
 30
0.0
 11
3117.395519367057
 21
-551.5557120634646
 31
0.0
  0
LINE
  5
26FB6A
102
{ACAD_REACTORS
330
26FBC7
102
}
330
A
100
AcDbEntity
  8
1
  6
Continuous
 62
     7
100
AcDbLine
 10
3117.54066096862
 20
-551.5645392729374
 30
0.0
 11
3117.521808734734
 21
-551.5727904631228
 31
0.0
  0
LINE
  5
26FB6B
102
{ACAD_REACTORS
330
26FBC7
102
}
330
A
100
AcDbEntity
  8
1
  6
Continuous
 62
     7
100
AcDbLine
 10
3117.54066096862
 20
-551.5645392729374
 30
0.0
 11
3117.521808734734
 21
-551.5562880827518
 31
0.0
  0
LINE
  5
26FB6C
102
{ACAD_REACTORS
330
26FBC7
102
}
330
A
100
AcDbEntity
  8
1
  6
Continuous
 62
     7
100
AcDbLine
 10
3117.521808734734
 20
-551.5562880827518
 30
0.0
 11
3117.395519367057
 21
-551.5392096830936
 31
0.0
  0
LINE
  5
26FB6D
102
{ACAD_REACTORS
330
26FBC7
102
}
330
A
100
AcDbEntity
  8
1
  6
Continuous
 62
     7
100
AcDbLine
 10
3117.521808734734
 20
-551.5727904631228
 30
0.0
 11
3117.395519367057
 21
-551.5557120634646
 31
0.0
  0
LINE
  5
26FB6E
102
{ACAD_REACTORS
330
26FBC7
102
}
330
A
100
AcDbEntity
  8
1
  6
Continuous
 62
     7
100
AcDbLine
 10
3117.395519367057
 20
-551.5392096830936
 30
0.0
 11
3117.395519367057
 21
-551.5251105619999
 31
0.0
  0
LINE
  5
26FB6F
102
{ACAD_REACTORS
330
26FBC7
102
}
330
A
100
AcDbEntity
  8
1
  6
Continuous
 62
     7
100
AcDbLine
 10
3117.521808734734
 20
-551.5562880827518
 30
0.0
 11
3117.521808734734
 21
-551.5421889616581
 31
0.0
  0
LINE
  5
26FB70
102
{ACAD_REACTORS
330
26FBC7
102
}
330
A
100
AcDbEntity
  8
1
  6
Continuous
 62
     7
100
AcDbLine
 10
3117.54066096862
 20
-551.5339377714724
 30
0.0
 11
3117.376663318474
 21
-551.5168593718143
 31
0.0
  0
LINE
  5
26FB71
102
{ACAD_REACTORS
330
26FBC7
102
}
330
A
100
AcDbEntity
  8
1
  6
Continuous
 62
     7
100
AcDbLine
 10
3117.376663318474
 20
-551.5168593718143
 30
0.0
 11
3117.395519367057
 21
-551.5086081816288
 31
0.0
  0
LINE
  5
26FB72
102
{ACAD_REACTORS
330
26FBC7
102
}
330
A
100
AcDbEntity
  8
1
  6
Continuous
 62
     7
100
AcDbLine
 10
3117.376663318474
 20
-551.5168593718143
 30
0.0
 11
3117.395519367057
 21
-551.5251105619999
 31
0.0
  0
LINE
  5
26FB73
102
{ACAD_REACTORS
330
26FBC7
102
}
330
A
100
AcDbEntity
  8
1
  6
Continuous
 62
     7
100
AcDbLine
 10
3117.54066096862
 20
-551.5339377714724
 30
0.0
 11
3117.521808734734
 21
-551.5421889616581
 31
0.0
  0
LINE
  5
26FB74
102
{ACAD_REACTORS
330
26FBC7
102
}
330
A
100
AcDbEntity
  8
1
  6
Continuous
 62
     7
100
AcDbLine
 10
3117.54066096862
 20
-551.5339377714724
 30
0.0
 11
3117.521808734734
 21
-551.525686581287
 31
0.0
  0
LINE
  5
26FB75
102
{ACAD_REACTORS
330
26FBC7
102
}
330
A
100
AcDbEntity
  8
1
  6
Continuous
 62
     7
100
AcDbLine
 10
3117.521808734734
 20
-551.525686581287
 30
0.0
 11
3117.395519367057
 21
-551.5086081816288
 31
0.0
  0
LINE
  5
26FB76
102
{ACAD_REACTORS
330
26FBC7
102
}
330
A
100
AcDbEntity
  8
1
  6
Continuous
 62
     7
100
AcDbLine
 10
3117.521808734734
 20
-551.5421889616581
 30
0.0
 11
3117.395519367057
 21
-551.5251105619999
 31
0.0
  0
LINE
  5
26FB77
102
{ACAD_REACTORS
330
26FBC7
102
}
330
A
100
AcDbEntity
  8
1
  6
Continuous
 62
     7
100
AcDbLine
 10
3117.395519367057
 20
-551.5086081816288
 30
0.0
 11
3117.395519367057
 21
-551.4945090605349
 31
0.0
  0
LINE
  5
26FB78
102
{ACAD_REACTORS
330
26FBC7
102
}
330
A
100
AcDbEntity
  8
1
  6
Continuous
 62
     7
100
AcDbLine
 10
3117.521808734734
 20
-551.525686581287
 30
0.0
 11
3117.521808734734
 21
-551.5115874601931
 31
0.0
  0
LINE
  5
26FB79
102
{ACAD_REACTORS
330
26FBC7
102
}
330
A
100
AcDbEntity
  8
1
  6
Continuous
 62
     7
100
AcDbLine
 10
3117.54066096862
 20
-551.5033362700076
 30
0.0
 11
3117.376663318474
 21
-551.4862578703493
 31
0.0
  0
LINE
  5
26FB7A
102
{ACAD_REACTORS
330
26FBC7
102
}
330
A
100
AcDbEntity
  8
1
  6
Continuous
 62
     7
100
AcDbLine
 10
3117.376663318474
 20
-551.4862578703493
 30
0.0
 11
3117.395519367057
 21
-551.4780066801638
 31
0.0
  0
LINE
  5
26FB7B
102
{ACAD_REACTORS
330
26FBC7
102
}
330
A
100
AcDbEntity
  8
1
  6
Continuous
 62
     7
100
AcDbLine
 10
3117.376663318474
 20
-551.4862578703493
 30
0.0
 11
3117.395519367057
 21
-551.4945090605349
 31
0.0
  0
LINE
  5
26FB7C
102
{ACAD_REACTORS
330
26FBC7
102
}
330
A
100
AcDbEntity
  8
1
  6
Continuous
 62
     7
100
AcDbLine
 10
3117.54066096862
 20
-551.5033362700076
 30
0.0
 11
3117.521808734734
 21
-551.5115874601931
 31
0.0
  0
LINE
  5
26FB7D
102
{ACAD_REACTORS
330
26FBC7
102
}
330
A
100
AcDbEntity
  8
1
  6
Continuous
 62
     7
100
AcDbLine
 10
3117.54066096862
 20
-551.5033362700076
 30
0.0
 11
3117.521808734734
 21
-551.4950850798221
 31
0.0
  0
LINE
  5
26FB7E
102
{ACAD_REACTORS
330
26FBC7
102
}
330
A
100
AcDbEntity
  8
1
  6
Continuous
 62
     7
100
AcDbLine
 10
3117.521808734734
 20
-551.4950850798221
 30
0.0
 11
3117.395519367057
 21
-551.4780066801638
 31
0.0
  0
LINE
  5
26FB7F
102
{ACAD_REACTORS
330
26FBC7
102
}
330
A
100
AcDbEntity
  8
1
  6
Continuous
 62
     7
100
AcDbLine
 10
3117.521808734734
 20
-551.5115874601931
 30
0.0
 11
3117.395519367057
 21
-551.4945090605349
 31
0.0
  0
LINE
  5
26FB80
102
{ACAD_REACTORS
330
26FBC7
102
}
330
A
100
AcDbEntity
  8
1
  6
Continuous
 62
     7
100
AcDbLine
 10
3117.379387012321
 20
-552.0374549223515
 30
0.0
 11
3117.398243060906
 21
-552.0292037321659
 31
0.0
  0
LINE
  5
26FB81
102
{ACAD_REACTORS
330
26FBC7
102
}
330
A
100
AcDbEntity
  8
1
  6
Continuous
 62
     7
100
AcDbLine
 10
3117.537525287467
 20
-552.0235617949099
 30
0.0
 11
3117.518673053581
 21
-552.0318129850956
 31
0.0
  0
LINE
  5
26FB82
102
{ACAD_REACTORS
330
26FBC7
102
}
330
A
100
AcDbEntity
  8
1
  6
Continuous
 62
     7
100
AcDbLine
 10
3117.537525287467
 20
-552.0235617949099
 30
0.0
 11
3117.521808734734
 21
-552.0153106047245
 31
0.0
  0
LINE
  5
26FB83
102
{ACAD_REACTORS
330
26FBC7
102
}
330
A
100
AcDbEntity
  8
1
  6
Continuous
 62
     7
100
AcDbLine
 10
3117.531963458854
 20
-552.0535014463993
 30
0.0
 11
3117.516086688835
 21
-552.0451377226443
 31
0.0
  0
LINE
  5
26FB84
102
{ACAD_REACTORS
330
26FBC7
102
}
330
A
100
AcDbEntity
  8
1
  6
Continuous
 62
     7
100
AcDbLine
 10
3117.531963458854
 20
-552.0535014463993
 30
0.0
 11
3117.513057819206
 21
-552.0612300230594
 31
0.0
  0
LINE
  5
26FB85
102
{ACAD_REACTORS
330
26FBC7
102
}
330
A
100
AcDbEntity
  8
1
  6
Continuous
 62
     7
100
AcDbLine
 10
3117.516086688835
 20
-552.0451377226443
 30
0.0
 11
3117.518596759635
 21
-552.0317977263065
 31
0.0
  0
LINE
  5
26FB86
102
{ACAD_REACTORS
330
26FBC7
102
}
330
A
100
AcDbEntity
  8
1
  6
Continuous
 62
     7
100
AcDbLine
 10
3117.526165119012
 20
-552.0834430052372
 30
0.0
 11
3117.510471454461
 21
-552.0749800993534
 31
0.0
  0
LINE
  5
26FB87
102
{ACAD_REACTORS
330
26FBC7
102
}
330
A
100
AcDbEntity
  8
1
  6
Continuous
 62
     7
100
AcDbLine
 10
3117.526165119012
 20
-552.0834430052372
 30
0.0
 11
3117.507442584831
 21
-552.0910723997683
 31
0.0
  0
LINE
  5
26FB88
102
{ACAD_REACTORS
330
26FBC7
102
}
330
A
100
AcDbEntity
  8
1
  6
Continuous
 62
     7
100
AcDbLine
 10
3117.513057819206
 20
-552.0612300230594
 30
0.0
 11
3117.510471454461
 21
-552.0749800993534
 31
0.0
  0
LINE
  5
26FB89
102
{ACAD_REACTORS
330
26FBC7
102
}
330
A
100
AcDbEntity
  8
1
  6
Continuous
 62
     7
100
AcDbLine
 10
3117.507442584831
 20
-552.0910723997683
 30
0.0
 11
3117.409885516961
 21
-552.0910723997683
 31
0.0
  0
LINE
  5
26FB8A
102
{ACAD_REACTORS
330
26FBC7
102
}
330
A
100
AcDbEntity
  8
1
  6
Continuous
 62
     7
100
AcDbLine
 10
3117.379387012321
 20
-552.0374549223515
 30
0.0
 11
3117.401428333122
 21
-552.046137173328
 31
0.0
  0
LINE
  5
26FB8B
102
{ACAD_REACTORS
330
26FBC7
102
}
330
A
100
AcDbEntity
  8
1
  6
Continuous
 62
     7
100
AcDbLine
 10
3117.384494891961
 20
-552.0687468840214
 30
0.0
 11
3117.404148212272
 21
-552.0606044127077
 31
0.0
  0
LINE
  5
26FB8C
102
{ACAD_REACTORS
330
26FBC7
102
}
330
A
100
AcDbEntity
  8
1
  6
Continuous
 62
     7
100
AcDbLine
 10
3117.384494891961
 20
-552.0687468840214
 30
0.0
 11
3117.407337299186
 21
-552.07753785387
 31
0.0
  0
LINE
  5
26FB8D
102
{ACAD_REACTORS
330
26FBC7
102
}
330
A
100
AcDbEntity
  8
1
  6
Continuous
 62
     7
100
AcDbLine
 10
3117.407337299186
 20
-552.07753785387
 30
0.0
 11
3117.409885516961
 21
-552.0910723997683
 31
0.0
  0
LINE
  5
26FB8E
102
{ACAD_REACTORS
330
26FBC7
102
}
330
A
100
AcDbEntity
  8
1
  6
Continuous
 62
     7
100
AcDbLine
 10
3117.401424518425
 20
-552.046137173328
 30
0.0
 11
3117.404148212272
 21
-552.0606044127077
 31
0.0
  0
LINE
  5
26FB8F
102
{ACAD_REACTORS
330
26FBC7
102
}
330
A
100
AcDbEntity
  8
1
  6
Continuous
 62
     7
100
AcDbLine
 10
3117.398243060906
 20
-552.0292037321659
 30
0.0
 11
3117.395519367057
 21
-552.0147345854374
 31
0.0
  0
LINE
  5
26FB90
102
{ACAD_REACTORS
330
26FBC7
102
}
330
A
100
AcDbEntity
  8
1
  6
Continuous
 62
     7
100
AcDbLine
 10
3117.54066096862
 20
-551.9623587919802
 30
0.0
 11
3117.479564777214
 21
-551.9559958769413
 31
0.0
  0
LINE
  5
26FB91
102
{ACAD_REACTORS
330
26FBC7
102
}
330
A
100
AcDbEntity
  8
1
  6
Continuous
 62
     7
100
AcDbLine
 10
3117.521808734734
 20
-551.9706099821659
 30
0.0
 11
3117.478031268913
 21
-551.9646895720097
 31
0.0
  0
LINE
  5
26FB92
102
{ACAD_REACTORS
330
26FBC7
102
}
330
A
100
AcDbEntity
  8
1
  6
Continuous
 62
     7
100
AcDbLine
 10
3117.376663318474
 20
-551.9452803923221
 30
0.0
 11
3117.46637355407
 21
-551.9546225859255
 31
0.0
  0
LINE
  5
26FB93
102
{ACAD_REACTORS
330
26FBC7
102
}
330
A
100
AcDbEntity
  8
1
  6
Continuous
 62
     7
100
AcDbLine
 10
3117.395519367057
 20
-551.9535315825077
 30
0.0
 11
3117.464916339713
 21
-551.9629157377811
 31
0.0
  0
LINE
  5
26FB94
102
{ACAD_REACTORS
330
26FBC7
102
}
330
A
100
AcDbEntity
  8
1
  6
Continuous
 62
     7
100
AcDbLine
 10
3117.480873218376
 20
-551.9485724760624
 30
0.0
 11
3117.521808734734
 21
-551.9541076017948
 31
0.0
  0
LINE
  5
26FB95
102
{ACAD_REACTORS
330
26FBC7
102
}
330
A
100
AcDbEntity
  8
1
  6
Continuous
 62
     7
100
AcDbLine
 10
3117.467754474479
 20
-551.9467986418337
 30
0.0
 11
3117.395519367057
 21
-551.9370292021366
 31
0.0
  0
LINE
  5
26FB96
102
{ACAD_REACTORS
330
26FBC7
102
}
330
A
100
AcDbEntity
  8
1
  6
Continuous
 62
     7
100
AcDbLine
 10
3117.395519367057
 20
-551.9841330839724
 30
0.0
 11
3117.459644428093
 21
-551.9928038908573
 31
0.0
  0
LINE
  5
26FB97
102
{ACAD_REACTORS
330
26FBC7
102
}
330
A
100
AcDbEntity
  8
1
  6
Continuous
 62
     7
100
AcDbLine
 10
3117.376663318474
 20
-551.9758818937869
 30
0.0
 11
3117.461078754264
 21
-551.9846728636356
 31
0.0
  0
LINE
  5
26FB98
102
{ACAD_REACTORS
330
26FBC7
102
}
330
A
100
AcDbEntity
  8
1
  6
Continuous
 62
     7
100
AcDbLine
 10
3117.395519367057
 20
-551.9676307036013
 30
0.0
 11
3117.462486377555
 21
-551.9766867949099
 31
0.0
  0
LINE
  5
26FB99
102
{ACAD_REACTORS
330
26FBC7
102
}
330
A
100
AcDbEntity
  8
1
  6
Continuous
 62
     7
100
AcDbLine
 10
3117.521808734734
 20
-551.9847091032596
 30
0.0
 11
3117.475605121452
 21
-551.9784606291384
 31
0.0
  0
LINE
  5
26FB9A
102
{ACAD_REACTORS
330
26FBC7
102
}
330
A
100
AcDbEntity
  8
1
  6
Continuous
 62
     7
100
AcDbLine
 10
3117.54066096862
 20
-551.9929602934452
 30
0.0
 11
3117.474266162711
 21
-551.9860461546511
 31
0.0
  0
LINE
  5
26FB9B
102
{ACAD_REACTORS
330
26FBC7
102
}
330
A
100
AcDbEntity
  8
1
  6
Continuous
 62
     7
100
AcDbLine
 10
3117.521808734734
 20
-552.0012114836306
 30
0.0
 11
3117.472759357292
 21
-551.9945777250858
 31
0.0
  0
LINE
  5
26FB9C
102
{ACAD_REACTORS
330
26FBC7
102
}
330
A
100
AcDbEntity
  8
1
  6
Continuous
 62
     7
100
AcDbLine
 10
3117.395519367057
 20
-551.9982322050663
 30
0.0
 11
3117.457218280632
 21
-552.0065768553347
 31
0.0
  0
LINE
  5
26FB9D
102
{ACAD_REACTORS
330
26FBC7
102
}
330
A
100
AcDbEntity
  8
1
  6
Continuous
 62
     7
100
AcDbLine
 10
3117.376663318474
 20
-552.0064833952518
 30
0.0
 11
3117.455753436882
 21
-552.0148795439333
 31
0.0
  0
LINE
  5
26FB9E
102
{ACAD_REACTORS
330
26FBC7
102
}
330
A
100
AcDbEntity
  8
1
  6
Continuous
 62
     7
100
AcDbLine
 10
3117.395519367057
 20
-552.0147345854374
 30
0.0
 11
3117.454338184197
 21
-552.0228923155398
 31
0.0
  0
LINE
  5
26FB9F
102
{ACAD_REACTORS
330
26FBC7
102
}
330
A
100
AcDbEntity
  8
1
  6
Continuous
 62
     7
100
AcDbLine
 10
3117.398243060906
 20
-552.0292037321659
 30
0.0
 11
3117.451946369012
 21
-552.036465008411
 31
0.0
  0
LINE
  5
26FBA0
102
{ACAD_REACTORS
330
26FBC7
102
}
330
A
100
AcDbEntity
  8
1
  6
Continuous
 62
     7
100
AcDbLine
 10
3117.516086688835
 20
-552.0451377226443
 30
0.0
 11
3117.465061298211
 21
-552.038240749988
 31
0.0
  0
LINE
  5
26FBA1
102
{ACAD_REACTORS
330
26FBC7
102
}
330
A
100
AcDbEntity
  8
1
  6
Continuous
 62
     7
100
AcDbLine
 10
3117.518673053581
 20
-552.0318129850956
 30
0.0
 11
3117.467449298699
 21
-552.0247100187869
 31
0.0
  0
LINE
  5
26FBA2
102
{ACAD_REACTORS
330
26FBC7
102
}
330
A
100
AcDbEntity
  8
1
  6
Continuous
 62
     7
100
AcDbLine
 10
3117.537525287467
 20
-552.0235617949099
 30
0.0
 11
3117.468937030631
 21
-552.01627953783
 31
0.0
  0
LINE
  5
26FBA3
102
{ACAD_REACTORS
330
26FBC7
102
}
330
A
100
AcDbEntity
  8
1
  6
Continuous
 62
     7
100
AcDbLine
 10
3117.521808734734
 20
-552.0153106047245
 30
0.0
 11
3117.470333209831
 21
-552.0083487822146
 31
0.0
  0
LINE
  5
26FBA4
102
{ACAD_REACTORS
330
26FBC7
102
}
330
A
100
AcDbEntity
  8
1
  6
Continuous
 62
     7
100
AcDbLine
 10
3117.379387012321
 20
-552.0374549223515
 30
0.0
 11
3117.450451007683
 21
-552.0449279142948
 31
0.0
  0
LINE
  5
26FBA5
102
{ACAD_REACTORS
330
26FBC7
102
}
330
A
100
AcDbEntity
  8
1
  6
Continuous
 62
     7
100
AcDbLine
 10
3117.531963458854
 20
-552.0535014463993
 30
0.0
 11
3117.46363841613
 21
-552.0463164640995
 31
0.0
  0
LINE
  5
26FBA6
102
{ACAD_REACTORS
330
26FBC7
102
}
330
A
100
AcDbEntity
  8
1
  6
Continuous
 62
     7
100
AcDbLine
 10
3117.401428333122
 20
-552.046137173328
 30
0.0
 11
3117.44910060485
 21
-552.0525840117068
 31
0.0
  0
LINE
  5
26FBA7
102
{ACAD_REACTORS
330
26FBC7
102
}
330
A
100
AcDbEntity
  8
1
  6
Continuous
 62
     7
100
AcDbLine
 10
3117.513057819206
 20
-552.0612300230594
 30
0.0
 11
3117.462223163445
 21
-552.0543559385868
 31
0.0
  0
LINE
  5
26FBA8
102
{ACAD_REACTORS
330
26FBC7
102
}
330
A
100
AcDbEntity
  8
1
  6
Continuous
 62
     7
100
AcDbLine
 10
3117.510471454461
 20
-552.0749800993534
 30
0.0
 11
3117.459793201286
 21
-552.0681269957157
 31
0.0
  0
LINE
  5
26FBA9
102
{ACAD_REACTORS
330
26FBC7
102
}
330
A
100
AcDbEntity
  8
1
  6
Continuous
 62
     7
100
AcDbLine
 10
3117.526165119012
 20
-552.0834430052372
 30
0.0
 11
3117.458332172234
 21
-552.0764067961306
 31
0.0
  0
LINE
  5
26FBAA
102
{ACAD_REACTORS
330
26FBC7
102
}
330
A
100
AcDbEntity
  8
1
  6
Continuous
 62
     7
100
AcDbLine
 10
3117.404148212272
 20
-552.0606044127077
 30
0.0
 11
3117.44667445739
 21
-552.0663531614871
 31
0.0
  0
LINE
  5
26FBAB
102
{ACAD_REACTORS
330
26FBC7
102
}
330
A
100
AcDbEntity
  8
1
  6
Continuous
 62
     7
100
AcDbLine
 10
3117.384494891961
 20
-552.0687468840214
 30
0.0
 11
3117.445140949089
 21
-552.0750373198124
 31
0.0
  0
LINE
  5
26FBAC
102
{ACAD_REACTORS
330
26FBC7
102
}
330
A
100
AcDbEntity
  8
1
  6
Continuous
 62
     7
100
AcDbLine
 10
3117.407337299186
 20
-552.07753785387
 30
0.0
 11
3117.443832507927
 21
-552.0824721647831
 31
0.0
  0
LINE
  5
26FBAD
102
{ACAD_REACTORS
330
26FBC7
102
}
330
A
100
AcDbEntity
  8
1
  6
Continuous
 62
     7
100
AcDbLine
 10
3117.507442584831
 20
-552.0910723997683
 30
0.0
 11
3117.456951251823
 21
-552.0842459990116
 31
0.0
  0
LINE
  5
26FBAE
102
{ACAD_REACTORS
330
26FBC7
102
}
330
A
100
AcDbEntity
  8
1
  6
Continuous
 62
     7
100
AcDbLine
 10
3117.459793201286
 20
-552.0681269957157
 30
0.0
 11
3117.456951251823
 21
-552.0842459990116
 31
0.0
  0
LINE
  5
26FBAF
102
{ACAD_REACTORS
330
26FBC7
102
}
330
A
100
AcDbEntity
  8
1
  6
Continuous
 62
     7
100
AcDbLine
 10
3117.44667445739
 20
-552.0663531614871
 30
0.0
 11
3117.443832507927
 21
-552.0824721647831
 31
0.0
  0
LINE
  5
26FBB0
102
{ACAD_REACTORS
330
26FBC7
102
}
330
A
100
AcDbEntity
  8
1
  6
Continuous
 62
     7
100
AcDbLine
 10
3117.465061298211
 20
-552.038240749988
 30
0.0
 11
3117.462223163445
 21
-552.0543559385868
 31
0.0
  0
LINE
  5
26FBB1
102
{ACAD_REACTORS
330
26FBC7
102
}
330
A
100
AcDbEntity
  8
1
  6
Continuous
 62
     7
100
AcDbLine
 10
3117.451946369012
 20
-552.036465008411
 30
0.0
 11
3117.44910060485
 21
-552.0525840117068
 31
0.0
  0
LINE
  5
26FBB2
102
{ACAD_REACTORS
330
26FBC7
102
}
330
A
100
AcDbEntity
  8
1
  6
Continuous
 62
     7
100
AcDbLine
 10
3117.470333209831
 20
-552.0083487822146
 30
0.0
 11
3117.467449298699
 21
-552.0247100187869
 31
0.0
  0
LINE
  5
26FBB3
102
{ACAD_REACTORS
330
26FBC7
102
}
330
A
100
AcDbEntity
  8
1
  6
Continuous
 62
     7
100
AcDbLine
 10
3117.457218280632
 20
-552.0065768553347
 30
0.0
 11
3117.454338184197
 21
-552.0228923155398
 31
0.0
  0
LINE
  5
26FBB4
102
{ACAD_REACTORS
330
26FBC7
102
}
330
A
100
AcDbEntity
  8
1
  6
Continuous
 62
     7
100
AcDbLine
 10
3117.475605121452
 20
-551.9784606291384
 30
0.0
 11
3117.472759357292
 21
-551.9945777250858
 31
0.0
  0
LINE
  5
26FBB5
102
{ACAD_REACTORS
330
26FBC7
102
}
330
A
100
AcDbEntity
  8
1
  6
Continuous
 62
     7
100
AcDbLine
 10
3117.478031268913
 20
-551.9646895720097
 30
0.0
 11
3117.480873218376
 21
-551.9485724760624
 31
0.0
  0
LINE
  5
26FBB6
102
{ACAD_REACTORS
330
26FBC7
102
}
330
A
100
AcDbEntity
  8
1
  6
Continuous
 62
     7
100
AcDbLine
 10
3117.462482562859
 20
-551.9766867949099
 30
0.0
 11
3117.459644428093
 21
-551.9928038908573
 31
0.0
  0
LINE
  5
26FBB7
102
{ACAD_REACTORS
330
26FBC7
102
}
330
A
100
AcDbEntity
  8
1
  6
Continuous
 62
     7
100
AcDbLine
 10
3117.464916339713
 20
-551.9629157377811
 30
0.0
 11
3117.467754474479
 21
-551.9467986418337
 31
0.0
  0
LINE
  5
26FBB8
102
{ACAD_REACTORS
330
26FBC7
102
}
330
A
100
AcDbEntity
  8
1
  6
Continuous
 62
     7
100
AcDbLine
 10
3117.395519367057
 20
-551.441072781238
 30
0.0
 11
3117.521808734734
 21
-551.441072781238
 31
0.0
  0
LINE
  5
26FBB9
102
{ACAD_REACTORS
330
26FBC7
102
}
330
A
100
AcDbEntity
  8
1
  6
Continuous
 62
     7
100
AcDbLine
 10
3117.395519367057
 20
-551.4780066801638
 30
0.0
 11
3117.395519367057
 21
-551.441072781238
 31
0.0
  0
LINE
  5
26FBBA
102
{ACAD_REACTORS
330
26FBC7
102
}
330
A
100
AcDbEntity
  8
1
  6
Continuous
 62
     7
100
AcDbLine
 10
3117.521808734734
 20
-551.4950850798221
 30
0.0
 11
3117.521808734734
 21
-551.441072781238
 31
0.0
  0
LINE
  5
26FBBB
102
{ACAD_REACTORS
330
26FBC7
102
}
330
A
100
AcDbEntity
  8
1
  6
Continuous
 62
     7
100
AcDbLine
 10
3117.395519367057
 20
-551.441072781238
 30
0.0
 11
3117.301494708855
 21
-551.3496573759645
 31
0.0
  0
ARC
  5
26FBBC
102
{ACAD_REACTORS
330
26FBC7
102
}
330
A
100
AcDbEntity
  8
1
  6
Continuous
 62
     7
100
AcDbCircle
 10
3117.304978560536
 20
-551.3460717747882
 30
0.0
 40
0.0049993757936645
100
AcDbArc
 50
90.0
 51
225.8245919895779
  0
LINE
  5
26FBBD
102
{ACAD_REACTORS
330
26FBC7
102
}
330
A
100
AcDbEntity
  8
1
  6
Continuous
 62
     7
100
AcDbLine
 10
3117.521808734734
 20
-551.441072781238
 30
0.0
 11
3117.615833392936
 21
-551.3496573759645
 31
0.0
  0
ARC
  5
26FBBE
102
{ACAD_REACTORS
330
26FBC7
102
}
330
A
100
AcDbEntity
  8
1
  6
Continuous
 62
     7
100
AcDbCircle
 10
3117.612344291555
 20
-551.3460739068595
 30
0.0
 40
0.005001507700003
100
AcDbArc
 50
314.2355606039852
 51
90.0
  0
LINE
  5
26FBBF
102
{ACAD_REACTORS
330
26FBC7
102
}
330
A
100
AcDbEntity
  8
1
  6
Continuous
 62
     7
100
AcDbLine
 10
3117.612346759635
 20
-551.3410723997683
 30
0.0
 11
3117.304981342155
 21
-551.3410723997683
 31
0.0
  0
LINE
  5
26FBC0
102
{ACAD_REACTORS
330
26FBC7
102
}
330
A
100
AcDbEntity
  8
1
  6
Continuous
 62
     7
100
AcDbLine
 10
3117.44425975402
 20
-551.3410723997683
 30
0.0
 11
3117.447864642936
 21
-551.4259360624881
 31
0.0
  0
LINE
  5
26FBC1
102
{ACAD_REACTORS
330
26FBC7
102
}
330
A
100
AcDbEntity
  8
1
  6
Continuous
 62
     7
100
AcDbLine
 10
3117.47306834777
 20
-551.3410723997683
 30
0.0
 11
3117.469463458854
 21
-551.4259360624881
 31
0.0
  0
LINE
  5
26FBC2
102
{ACAD_REACTORS
330
26FBC7
102
}
330
A
100
AcDbEntity
  8
1
  6
Continuous
 62
     7
100
AcDbLine
 10
3117.469463458854
 20
-551.4259360624881
 30
0.0
 11
3117.544666400749
 21
-551.3410723997683
 31
0.0
  0
LINE
  5
26FBC3
102
{ACAD_REACTORS
330
26FBC7
102
}
330
A
100
AcDbEntity
  8
1
  6
Continuous
 62
     7
100
AcDbLine
 10
3117.447864642936
 20
-551.4259360624881
 30
0.0
 11
3117.372661701042
 21
-551.3410723997683
 31
0.0
  0
LINE
  5
26FBC4
102
{ACAD_REACTORS
330
26FBC7
102
}
330
A
100
AcDbEntity
  8
1
  6
Continuous
 62
     7
100
AcDbLine
 10
3117.469463458854
 20
-551.4259360624881
 30
0.0
 11
3117.447864642936
 21
-551.4259360624881
 31
0.0
  0
LWPOLYLINE
  5
26FBDD
330
A
100
AcDbEntity
  8
1
  6
Continuous
 62
     7
100
AcDbPolyline
 90
       52
 70
     0
 43
0.0
 10
2758.54374072943
 20
-551.9607167514001
 42
0.4931441222192101
 10
2758.56263560273
 20
-551.9462182678791
 10
2758.56263560273
 20
-551.8412607170485
 42
-0.4142138482948347
 10
2758.687718883393
 20
-551.7161773142762
 10
2759.638853349219
 20
-551.7161773142762
 42
-0.4142136762958556
 10
2759.685884740947
 20
-551.763208724297
 10
2759.685884740947
 20
-552.3469597010736
 10
2759.592072188869
 20
-552.2531471489943
 10
2759.592072188869
 20
-552.3415943281393
 10
2759.717155591641
 20
-552.466677730912
 10
2759.842238875125
 20
-552.3415942088504
 10
2759.842238875125
 20
-552.2531469104166
 10
2759.748426442334
 20
-552.3469593432073
 10
2759.748426442334
 20
-551.763208724297
 42
-0.4142162126630434
 10
2759.795457426787
 20
-551.7161773142762
 10
2760.822142326748
 20
-551.7161773142762
 42
-0.4142143103870421
 10
2760.86917361666
 20
-551.763208724297
 10
2760.86917361666
 20
-552.3469595817846
 10
2760.775361064581
 20
-552.2531470297053
 10
2760.775361064581
 20
-552.3415943281393
 10
2760.900444467353
 20
-552.466677730912
 10
2761.025527870126
 20
-552.3415943281393
 10
2761.025527870126
 20
-552.2531470297053
 10
2760.931715318046
 20
-552.3469595817846
 10
2760.931715318046
 20
-551.763208724297
 42
-0.4142143103870187
 10
2760.978746607953
 20
-551.7161773142762
 10
2761.306965526364
 20
-551.7161773142762
 10
2761.206456457312
 20
-551.3410723997512
 10
2761.143414458578
 20
-551.3410723997512
 10
2761.224989050439
 20
-551.6455129979703
 10
2760.812614061612
 20
-551.6455129979703
 10
2760.837652617293
 20
-551.5520677361942
 10
2760.71256921452
 20
-551.5520677361942
 10
2760.737607789627
 20
-551.6455129979703
 10
2760.21821773784
 20
-551.6455129979703
 10
2760.243256305449
 20
-551.5520677361942
 10
2759.868006097132
 20
-551.5520677361942
 10
2759.893044583683
 20
-551.6455129979703
 10
2759.217550579443
 20
-551.6455129979703
 10
2759.242589083268
 20
-551.5520677361942
 10
2759.117505680495
 20
-551.5520677361942
 10
2759.142544167048
 20
-551.6455129979703
 10
2758.687744712366
 20
-551.6455131172594
 42
0.1617559938161095
 10
2758.570985259481
 20
-551.68430108723
 10
2758.561108705723
 20
-551.6474418983293
 10
2758.494596356388
 20
-551.7139543669546
 10
2758.531444436974
 20
-551.7238277840116
 42
0.1618456287144014
 10
2758.492615207521
 20
-551.8406431587829
 10
2758.492615207521
 20
-551.8769709835687
 10
2758.242422158434
 20
-551.8099319740541
 10
2758.242422158434
 20
-551.8799787320936
 10
2758.543740731473
 20
-551.9607167519484
  0
LWPOLYLINE
  5
26FBDE
330
A
100
AcDbEntity
  8
1
  6
Continuous
 62
     7
100
AcDbPolyline
 90
       24
 70
     1
 43
0.0
 10
2761.224989050439
 20
-551.6455129979703
 10
2760.812614061612
 20
-551.6455129979703
 10
2760.837652617293
 20
-551.5520677361942
 10
2760.71256921452
 20
-551.5520677361942
 10
2760.737607789627
 20
-551.6455129979703
 10
2760.21821773784
 20
-551.6455129979703
 10
2760.243256305449
 20
-551.5520677361942
 10
2759.868006097132
 20
-551.5520677361942
 10
2759.893044583683
 20
-551.6455129979703
 10
2759.217550579443
 20
-551.6455129979703
 10
2759.242589083268
 20
-551.5520677361942
 10
2759.117505680495
 20
-551.5520677361942
 10
2759.142544167048
 20
-551.6455129979703
 10
2758.687744712366
 20
-551.6455131172594
 42
0.1617559938160847
 10
2758.570985259481
 20
-551.68430108723
 10
2758.561108705723
 20
-551.6474418983293
 10
2758.494596356388
 20
-551.7139543669546
 10
2758.531444436974
 20
-551.7238277840116
 42
0.1618456287142695
 10
2758.492615207521
 20
-551.8406431587829
 10
2758.492615207521
 20
-551.8769709835687
 10
2758.242422158434
 20
-551.8099319740541
 10
2758.242422158434
 20
-551.7163226080692
 42
-0.4142135623730951
 10
2758.617672366753
 20
-551.3410723997512
 10
2761.143414458578
 20
-551.3410723997512
  0
ENDSEC
  0
SECTION
  2
OBJECTS
  0
DICTIONARY
  5
19
330
0
100
AcDbDictionary
281
     1
  3
ACAD_BACKGROUND
350
21E378
  3
ACAD_CIP_PREVIOUS_PRODUCT_INFO
350
8FC
  3
ACAD_COLOR
350
8DF
  3
ACAD_DETAILVIEWSTYLE
350
8F8
  3
ACAD_FIELDLIST
350
22A784
  3
ACAD_GROUP
350
1A
  3
ACAD_LAYOUT
350
1E
  3
ACAD_MATERIAL
350
8AD
  3
ACAD_MLEADERSTYLE
350
8F4
  3
ACAD_MLINESTYLE
350
1B
  3
ACAD_PLOTSETTINGS
350
22
  3
ACAD_PLOTSTYLENAME
350
1F
  3
ACAD_POINTCLOUD_COLORMAP_DICT
350
1AD741
  3
ACAD_SCALELIST
350
8E2
  3
ACAD_SECTIONVIEWSTYLE
350
8F6
  3
ACAD_TABLESTYLE
350
8E0
  3
ACAD_VISUALSTYLE
350
8C6
  3
ACAD_WIPEOUT_VARS
350
23
  3
ACDB_RECOMPOSE_DATA
350
26FBE0
  3
AcDbVariableDictionary
350
9BC
  3
ASE_INDEX_DICTIONARY
350
22A2D
  0
DICTIONARY
  5
11AE
330
2
100
AcDbDictionary
280
     1
281
     1
  3
ACAD_LAYERFILTERS
360
1EB087
  3
ACAD_LAYERSTATES
360
11AF
  3
ACLYDICTIONARY
360
1EB086
  0
DICTIONARY
  5
EDD
330
14
100
AcDbDictionary
280
     1
281
     1
  3
ADSK_XREC_LAYER_RECONCILED
360
EDE
  0
DICTIONARY
  5
245C61
330
966
100
AcDbDictionary
280
     1
281
     1
  0
DICTIONARY
  5
187404
330
22E2
100
AcDbDictionary
280
     1
281
     1
  0
DICTIONARY
  5
9AF
330
A
100
AcDbDictionary
280
     1
281
     1
  3
ACAD_SORTENTS
360
9377
  0
DICTIONARY
  5
26F589
330
26F588
100
AcDbDictionary
280
     1
281
     1
  3
AcDbContextDataManager
360
26F58A
  0
DICTIONARY
  5
26F58D
330
26F58C
100
AcDbDictionary
280
     1
281
     1
  3
AcDbContextDataManager
360
26F58E
  0
DICTIONARY
  5
26F592
330
26F591
100
AcDbDictionary
280
     1
281
     1
  3
AcDbContextDataManager
360
26F593
  0
DICTIONARY
  5
26F597
330
26F596
100
AcDbDictionary
280
     1
281
     1
  3
AcDbContextDataManager
360
26F598
  0
DICTIONARY
  5
26F59B
330
26F59A
100
AcDbDictionary
280
     1
281
     1
  3
AcDbContextDataManager
360
26F59C
  0
DICTIONARY
  5
26F59F
330
26F59E
100
AcDbDictionary
280
     1
281
     1
  3
AcDbContextDataManager
360
26F5A0
  0
DICTIONARY
  5
26F5A7
330
26F5A6
100
AcDbDictionary
280
     1
281
     1
  3
AcDbContextDataManager
360
26F5A8
  0
DICTIONARY
  5
26F5AF
330
26F5AE
100
AcDbDictionary
280
     1
281
     1
  3
AcDbContextDataManager
360
26F5B0
  0
DICTIONARY
  5
26F5B3
330
26F5B2
100
AcDbDictionary
280
     1
281
     1
  3
AcDbContextDataManager
360
26F5B4
  0
DICTIONARY
  5
26F5B7
330
26F5B6
100
AcDbDictionary
280
     1
281
     1
  3
AcDbContextDataManager
360
26F5B8
  0
DICTIONARY
  5
26F5BB
330
26F5BA
100
AcDbDictionary
280
     1
281
     1
  3
AcDbContextDataManager
360
26F5BC
  0
DICTIONARY
  5
26F5C0
330
26F5BF
100
AcDbDictionary
280
     1
281
     1
  3
AcDbContextDataManager
360
26F5C1
  0
DICTIONARY
  5
26F5C4
330
26F5C3
100
AcDbDictionary
280
     1
281
     1
  3
AcDbContextDataManager
360
26F5C5
  0
DICTIONARY
  5
26F5C8
330
26F5C7
100
AcDbDictionary
280
     1
281
     1
  3
AcDbContextDataManager
360
26F5C9
  0
DICTIONARY
  5
26F5CC
330
26F5CB
100
AcDbDictionary
280
     1
281
     1
  3
AcDbContextDataManager
360
26F5CD
  0
DICTIONARY
  5
26F5D0
330
26F5CF
100
AcDbDictionary
280
     1
281
     1
  3
AcDbContextDataManager
360
26F5D1
  0
DICTIONARY
  5
26F5D4
330
26F5D3
100
AcDbDictionary
280
     1
281
     1
  3
AcDbContextDataManager
360
26F5D5
  0
DICTIONARY
  5
26F5D8
330
26F5D7
100
AcDbDictionary
280
     1
281
     1
  3
AcDbContextDataManager
360
26F5D9
  0
DICTIONARY
  5
26F5DC
330
26F5DB
100
AcDbDictionary
280
     1
281
     1
  3
AcDbContextDataManager
360
26F5DD
  0
DICTIONARY
  5
26F5F7
330
26F5F6
100
AcDbDictionary
280
     1
281
     1
  3
AcDbContextDataManager
360
26F5F8
  0
DICTIONARY
  5
26F5FD
330
26F5FC
100
AcDbDictionary
280
     1
281
     1
  3
AcDbContextDataManager
360
26F5FE
  0
DICTIONARY
  5
26F602
330
26F601
100
AcDbDictionary
280
     1
281
     1
  3
AcDbContextDataManager
360
26F603
  0
DICTIONARY
  5
26F60B
330
26F60A
100
AcDbDictionary
280
     1
281
     1
  3
AcDbContextDataManager
360
26F60C
  0
DICTIONARY
  5
26F612
330
26F611
100
AcDbDictionary
280
     1
281
     1
  3
AcDbContextDataManager
360
26F613
  0
DICTIONARY
  5
26F619
330
26F618
100
AcDbDictionary
280
     1
281
     1
  3
AcDbContextDataManager
360
26F61A
  0
DICTIONARY
  5
26F620
330
26F61F
100
AcDbDictionary
280
     1
281
     1
  3
AcDbContextDataManager
360
26F621
  0
DICTIONARY
  5
26F628
330
26F627
100
AcDbDictionary
280
     1
281
     1
  3
AcDbContextDataManager
360
26F629
  0
DICTIONARY
  5
26F62F
330
26F62E
100
AcDbDictionary
280
     1
281
     1
  3
AcDbContextDataManager
360
26F630
  0
DICTIONARY
  5
26F635
330
26F634
100
AcDbDictionary
280
     1
281
     1
  3
AcDbContextDataManager
360
26F636
  0
DICTIONARY
  5
26F63C
330
26F63B
100
AcDbDictionary
280
     1
281
     1
  3
AcDbContextDataManager
360
26F63D
  0
DICTIONARY
  5
26F641
330
26F640
100
AcDbDictionary
280
     1
281
     1
  3
AcDbContextDataManager
360
26F642
  0
DICTIONARY
  5
26F64A
330
26F649
100
AcDbDictionary
280
     1
281
     1
  3
AcDbContextDataManager
360
26F64B
  0
DICTIONARY
  5
26F651
330
26F650
100
AcDbDictionary
280
     1
281
     1
  3
AcDbContextDataManager
360
26F652
  0
DICTIONARY
  5
26F65A
330
26F659
100
AcDbDictionary
280
     1
281
     1
  3
AcDbContextDataManager
360
26F65B
  0
DICTIONARY
  5
26F666
330
26F665
100
AcDbDictionary
280
     1
281
     1
  3
AcDbContextDataManager
360
26F667
  0
DICTIONARY
  5
26F82A
330
26F829
100
AcDbDictionary
280
     1
281
     1
  3
AcDbContextDataManager
360
26F82B
  0
DICTIONARY
  5
26F9F8
330
26F9F7
100
AcDbDictionary
280
     1
281
     1
  3
AcDbContextDataManager
360
26F9F9
  0
DICTIONARY
  5
26F9FC
330
26F9FB
100
AcDbDictionary
280
     1
281
     1
  3
AcDbContextDataManager
360
26F9FD
  0
DICTIONARY
  5
26FA02
330
26FA01
100
AcDbDictionary
280
     1
281
     1
  3
AcDbContextDataManager
360
26FA03
  0
DICTIONARY
  5
26FA07
330
26FA06
100
AcDbDictionary
280
     1
281
     1
  3
AcDbContextDataManager
360
26FA08
  0
DICTIONARY
  5
21E378
102
{ACAD_REACTORS
330
19
102
}
330
19
100
AcDbDictionary
281
     1
  0
XRECORD
  5
8FC
102
{ACAD_REACTORS
330
19
102
}
330
19
100
AcDbXrecord
280
     1
300
ACDLT
300
2023
300

  0
DICTIONARY
  5
8DF
102
{ACAD_REACTORS
330
19
102
}
330
19
100
AcDbDictionary
281
     1
  3
PANTONE+ Solid Uncoated$PANTONE 2945 U
350
E1A00
  0
DICTIONARY
  5
8F8
102
{ACAD_REACTORS
330
19
102
}
330
19
100
AcDbDictionary
281
     1
  3
Imperial24
350
8F9
  0
FIELDLIST
  5
22A784
102
{ACAD_REACTORS
330
19
102
}
330
19
100
AcDbIdSet
 90
        0
100
AcDbFieldList
  0
DICTIONARY
  5
1A
102
{ACAD_REACTORS
330
19
102
}
330
19
100
AcDbDictionary
281
     1
  3
*A1
350
26FBC6
  3
*A2
350
26FBC7
  0
DICTIONARY
  5
1E
102
{ACAD_REACTORS
330
19
102
}
330
19
100
AcDbDictionary
281
     1
  3
Layout1
350
26E9FB
  3
Model
350
20
  0
DICTIONARY
  5
8AD
102
{ACAD_REACTORS
330
19
102
}
330
19
100
AcDbDictionary
281
     1
  3
ByBlock
350
8B6
  3
ByLayer
350
8AE
  3
Global
350
8BE
  0
DICTIONARY
  5
8F4
102
{ACAD_REACTORS
330
19
102
}
330
19
100
AcDbDictionary
281
     1
  3
Standard
350
8F5
  0
DICTIONARY
  5
1B
102
{ACAD_REACTORS
330
19
102
}
330
19
100
AcDbDictionary
281
     1
  3
Standard
350
1C
  0
DICTIONARY
  5
22
102
{ACAD_REACTORS
330
19
102
}
330
19
100
AcDbDictionary
281
     1
  0
ACDBDICTIONARYWDFLT
  5
1F
102
{ACAD_REACTORS
330
19
102
}
330
19
100
AcDbDictionary
281
     1
  3
Normal
350
1D
100
AcDbDictionaryWithDefault
340
1D
  0
DICTIONARY
  5
1AD741
102
{ACAD_REACTORS
330
19
102
}
330
19
100
AcDbDictionary
281
     1
  3
ACAD_POINTCLOUD_COLORMAP
350
1AD742
  0
DICTIONARY
  5
8E2
102
{ACAD_REACTORS
330
19
102
}
330
19
100
AcDbDictionary
281
     1
  3
A0
350
8E3
  3
A1
350
8E4
  3
A2
350
8E5
  3
A3
350
8E6
  3
A4
350
8E7
  3
A5
350
8E8
  3
A6
350
8E9
  3
A7
350
8EA
  3
A8
350
8EB
  3
A9
350
8EC
  3
B0
350
8ED
  3
B1
350
8EE
  3
B2
350
8EF
  3
B3
350
8F0
  3
B4
350
8F1
  3
B5
350
8F2
  3
B6
350
8F3
  0
DICTIONARY
  5
8F6
102
{ACAD_REACTORS
330
19
102
}
330
19
100
AcDbDictionary
281
     1
  3
Imperial24
350
8F7
  0
DICTIONARY
  5
8E0
102
{ACAD_REACTORS
330
19
102
}
330
19
100
AcDbDictionary
281
     1
  3
Standard
350
8E1
  0
DICTIONARY
  5
8C6
102
{ACAD_REACTORS
330
19
102
}
330
19
100
AcDbDictionary
281
     1
  3
2dWireframe
350
8CC
  3
Basic
350
8CB
  3
Brighten
350
8D2
  3
ColorChange
350
8D6
  3
Conceptual
350
8CF
  3
Dim
350
8D1
  3
EdgeColorOff
350
8DE
  3
Facepattern
350
8D5
  3
Flat
350
8C7
  3
FlatWithEdges
350
8C8
  3
Gouraud
350
8C9
  3
GouraudWithEdges
350
8CA
  3
Hidden
350
8CE
  3
JitterOff
350
8DC
  3
Linepattern
350
8D4
  3
OverhangOff
350
8DD
  3
Realistic
350
8D0
  3
Shaded
350
8DB
  3
Shaded with edges
350
8DA
  3
Shades of Gray
350
8D7
  3
Sketchy
350
8D8
  3
Thicken
350
8D3
  3
Wireframe
350
8CD
  3
X-Ray
350
8D9
  0
WIPEOUTVARIABLES
  5
23
330
19
100
AcDbWipeoutVariables
 70
     1
  0
XRECORD
  5
26FBE0
102
{ACAD_REACTORS
330
19
102
}
330
19
100
AcDbXrecord
280
     1
 90
        1
330
8E1
  0
DICTIONARY
  5
9BC
102
{ACAD_REACTORS
330
19
102
}
330
19
100
AcDbDictionary
281
     1
  3
CANNOSCALE
350
168B
  3
CMLEADERSTYLE
350
1687
  3
CTABLESTYLE
350
1686
  3
CVIEWDETAILSTYLE
350
1688
  3
CVIEWSECTIONSTYLE
350
1689
  3
DIMLAYER
350
185035
  3
EXPORTMODELSPACE
350
249D37
  3
HPCOLOR
350
FB9E
  3
HPLAYER
350
1A166A
  3
HPTRANSPARENCY
350
16B887
  3
LAYEREVAL
350
168D
  3
LAYERNOTIFY
350
168E
  3
LIGHTINGUNITS
350
168C
  3
MSLTSCALE
350
168A
  3
TEXTJUSTIFY
350
BCAE
  0
DICTIONARY
  5
22A2D
102
{ACAD_REACTORS
330
19
102
}
330
19
100
AcDbDictionary
281
     1
  3
ASEBlockHierarchyIndexRecord
350
22A2E
1001
DCO15
1040
1822035351.0
  0
DICTIONARY
  5
1EB087
102
{ACAD_REACTORS
330
11AE
102
}
330
11AE
100
AcDbDictionary
281
     1
  0
DICTIONARY
  5
11AF
102
{ACAD_REACTORS
330
11AE
102
}
330
11AE
100
AcDbDictionary
281
     1
  0
DICTIONARY
  5
1EB086
102
{ACAD_REACTORS
330
11AE
102
}
330
11AE
100
AcDbDictionary
281
     1
1001
ACAD
1000
<All
  0
XRECORD
  5
EDE
102
{ACAD_REACTORS
330
EDD
102
}
330
EDD
100
AcDbXrecord
280
     1
290
     1
  0
SORTENTSTABLE
  5
9377
102
{ACAD_REACTORS
330
9AF
102
}
330
9AF
100
AcDbSortentsTable
330
A
  0
DICTIONARY
  5
26F58A
102
{ACAD_REACTORS
330
26F589
102
}
330
26F589
100
AcDbDictionary
281
     1
  3
ACDB_ANNOTATIONSCALES
350
26F58B
  0
DICTIONARY
  5
26F58E
102
{ACAD_REACTORS
330
26F58D
102
}
330
26F58D
100
AcDbDictionary
281
     1
  3
ACDB_ANNOTATIONSCALES
350
26F58F
  0
DICTIONARY
  5
26F593
102
{ACAD_REACTORS
330
26F592
102
}
330
26F592
100
AcDbDictionary
281
     1
  3
ACDB_ANNOTATIONSCALES
350
26F594
  0
DICTIONARY
  5
26F598
102
{ACAD_REACTORS
330
26F597
102
}
330
26F597
100
AcDbDictionary
281
     1
  3
ACDB_ANNOTATIONSCALES
350
26F599
  0
DICTIONARY
  5
26F59C
102
{ACAD_REACTORS
330
26F59B
102
}
330
26F59B
100
AcDbDictionary
281
     1
  3
ACDB_ANNOTATIONSCALES
350
26F59D
  0
DICTIONARY
  5
26F5A0
102
{ACAD_REACTORS
330
26F59F
102
}
330
26F59F
100
AcDbDictionary
281
     1
  3
ACDB_ANNOTATIONSCALES
350
26F5A1
  0
DICTIONARY
  5
26F5A8
102
{ACAD_REACTORS
330
26F5A7
102
}
330
26F5A7
100
AcDbDictionary
281
     1
  3
ACDB_ANNOTATIONSCALES
350
26F5A9
  0
DICTIONARY
  5
26F5B0
102
{ACAD_REACTORS
330
26F5AF
102
}
330
26F5AF
100
AcDbDictionary
281
     1
  3
ACDB_ANNOTATIONSCALES
350
26F5B1
  0
DICTIONARY
  5
26F5B4
102
{ACAD_REACTORS
330
26F5B3
102
}
330
26F5B3
100
AcDbDictionary
281
     1
  3
ACDB_ANNOTATIONSCALES
350
26F5B5
  0
DICTIONARY
  5
26F5B8
102
{ACAD_REACTORS
330
26F5B7
102
}
330
26F5B7
100
AcDbDictionary
281
     1
  3
ACDB_ANNOTATIONSCALES
350
26F5B9
  0
DICTIONARY
  5
26F5BC
102
{ACAD_REACTORS
330
26F5BB
102
}
330
26F5BB
100
AcDbDictionary
281
     1
  3
ACDB_ANNOTATIONSCALES
350
26F5BD
  0
DICTIONARY
  5
26F5C1
102
{ACAD_REACTORS
330
26F5C0
102
}
330
26F5C0
100
AcDbDictionary
281
     1
  3
ACDB_ANNOTATIONSCALES
350
26F5C2
  0
DICTIONARY
  5
26F5C5
102
{ACAD_REACTORS
330
26F5C4
102
}
330
26F5C4
100
AcDbDictionary
281
     1
  3
ACDB_ANNOTATIONSCALES
350
26F5C6
  0
DICTIONARY
  5
26F5C9
102
{ACAD_REACTORS
330
26F5C8
102
}
330
26F5C8
100
AcDbDictionary
281
     1
  3
ACDB_ANNOTATIONSCALES
350
26F5CA
  0
DICTIONARY
  5
26F5CD
102
{ACAD_REACTORS
330
26F5CC
102
}
330
26F5CC
100
AcDbDictionary
281
     1
  3
ACDB_ANNOTATIONSCALES
350
26F5CE
  0
DICTIONARY
  5
26F5D1
102
{ACAD_REACTORS
330
26F5D0
102
}
330
26F5D0
100
AcDbDictionary
281
     1
  3
ACDB_ANNOTATIONSCALES
350
26F5D2
  0
DICTIONARY
  5
26F5D5
102
{ACAD_REACTORS
330
26F5D4
102
}
330
26F5D4
100
AcDbDictionary
281
     1
  3
ACDB_ANNOTATIONSCALES
350
26F5D6
  0
DICTIONARY
  5
26F5D9
102
{ACAD_REACTORS
330
26F5D8
102
}
330
26F5D8
100
AcDbDictionary
281
     1
  3
ACDB_ANNOTATIONSCALES
350
26F5DA
  0
DICTIONARY
  5
26F5DD
102
{ACAD_REACTORS
330
26F5DC
102
}
330
26F5DC
100
AcDbDictionary
281
     1
  3
ACDB_ANNOTATIONSCALES
350
26F5DE
  0
DICTIONARY
  5
26F5F8
102
{ACAD_REACTORS
330
26F5F7
102
}
330
26F5F7
100
AcDbDictionary
281
     1
  3
ACDB_ANNOTATIONSCALES
350
26F5F9
  0
DICTIONARY
  5
26F5FE
102
{ACAD_REACTORS
330
26F5FD
102
}
330
26F5FD
100
AcDbDictionary
281
     1
  3
ACDB_ANNOTATIONSCALES
350
26F5FF
  0
DICTIONARY
  5
26F603
102
{ACAD_REACTORS
330
26F602
102
}
330
26F602
100
AcDbDictionary
281
     1
  3
ACDB_ANNOTATIONSCALES
350
26F604
  0
DICTIONARY
  5
26F60C
102
{ACAD_REACTORS
330
26F60B
102
}
330
26F60B
100
AcDbDictionary
281
     1
  3
ACDB_ANNOTATIONSCALES
350
26F60D
  0
DICTIONARY
  5
26F613
102
{ACAD_REACTORS
330
26F612
102
}
330
26F612
100
AcDbDictionary
281
     1
  3
ACDB_ANNOTATIONSCALES
350
26F614
  0
DICTIONARY
  5
26F61A
102
{ACAD_REACTORS
330
26F619
102
}
330
26F619
100
AcDbDictionary
281
     1
  3
ACDB_ANNOTATIONSCALES
350
26F61B
  0
DICTIONARY
  5
26F621
102
{ACAD_REACTORS
330
26F620
102
}
330
26F620
100
AcDbDictionary
281
     1
  3
ACDB_ANNOTATIONSCALES
350
26F622
  0
DICTIONARY
  5
26F629
102
{ACAD_REACTORS
330
26F628
102
}
330
26F628
100
AcDbDictionary
281
     1
  3
ACDB_ANNOTATIONSCALES
350
26F62A
  0
DICTIONARY
  5
26F630
102
{ACAD_REACTORS
330
26F62F
102
}
330
26F62F
100
AcDbDictionary
281
     1
  3
ACDB_ANNOTATIONSCALES
350
26F631
  0
DICTIONARY
  5
26F636
102
{ACAD_REACTORS
330
26F635
102
}
330
26F635
100
AcDbDictionary
281
     1
  3
ACDB_ANNOTATIONSCALES
350
26F637
  0
DICTIONARY
  5
26F63D
102
{ACAD_REACTORS
330
26F63C
102
}
330
26F63C
100
AcDbDictionary
281
     1
  3
ACDB_ANNOTATIONSCALES
350
26F63E
  0
DICTIONARY
  5
26F642
102
{ACAD_REACTORS
330
26F641
102
}
330
26F641
100
AcDbDictionary
281
     1
  3
ACDB_ANNOTATIONSCALES
350
26F643
  0
DICTIONARY
  5
26F64B
102
{ACAD_REACTORS
330
26F64A
102
}
330
26F64A
100
AcDbDictionary
281
     1
  3
ACDB_ANNOTATIONSCALES
350
26F64C
  0
DICTIONARY
  5
26F652
102
{ACAD_REACTORS
330
26F651
102
}
330
26F651
100
AcDbDictionary
281
     1
  3
ACDB_ANNOTATIONSCALES
350
26F653
  0
DICTIONARY
  5
26F65B
102
{ACAD_REACTORS
330
26F65A
102
}
330
26F65A
100
AcDbDictionary
281
     1
  3
ACDB_ANNOTATIONSCALES
350
26F65C
  0
DICTIONARY
  5
26F667
102
{ACAD_REACTORS
330
26F666
102
}
330
26F666
100
AcDbDictionary
281
     1
  3
ACDB_ANNOTATIONSCALES
350
26F668
  0
DICTIONARY
  5
26F82B
102
{ACAD_REACTORS
330
26F82A
102
}
330
26F82A
100
AcDbDictionary
281
     1
  3
ACDB_ANNOTATIONSCALES
350
26F82C
  0
DICTIONARY
  5
26F9F9
102
{ACAD_REACTORS
330
26F9F8
102
}
330
26F9F8
100
AcDbDictionary
281
     1
  3
ACDB_ANNOTATIONSCALES
350
26F9FA
  0
DICTIONARY
  5
26F9FD
102
{ACAD_REACTORS
330
26F9FC
102
}
330
26F9FC
100
AcDbDictionary
281
     1
  3
ACDB_ANNOTATIONSCALES
350
26F9FE
  0
DICTIONARY
  5
26FA03
102
{ACAD_REACTORS
330
26FA02
102
}
330
26FA02
100
AcDbDictionary
281
     1
  3
ACDB_ANNOTATIONSCALES
350
26FA04
  0
DICTIONARY
  5
26FA08
102
{ACAD_REACTORS
330
26FA07
102
}
330
26FA07
100
AcDbDictionary
281
     1
  3
ACDB_ANNOTATIONSCALES
350
26FA09
  0
DBCOLOR
  5
E1A00
102
{ACAD_REACTORS
330
8DF
102
}
330
8DF
100
AcDbColor
 62
   157
420
  2709644
430
PANTONE+ Solid Uncoated$PANTONE 2945 U
  0
ACDBDETAILVIEWSTYLE
  5
8F9
102
{ACAD_REACTORS
330
8F8
102
}
330
8F8
100
AcDbModelDocViewStyle
 70
     0
  3
Imperial24
290
     0
300
Imperial24
 90
        0
100
AcDbDetailViewStyle
 70
     0
 71
     0
 90
        3
 71
     1
340
17
 62
   256
 40
0.24
340
0
 62
   256
 40
0.24
300

 40
0.36
280
     3
 71
     2
340
13
 90
       25
 62
   256
 71
     3
340
17
 62
   256
 40
0.24
 90
        1
 40
0.75
 90
        1
300
%<\AcVar ViewType \f "%tc1">% %<\AcVar ViewDetailId>%\PSCALE %<\AcVar ViewScale \f "%sn">%
 71
     4
340
13
 90
       25
 62
   256
340
13
 90
       25
 62
   256
280
     0
  0
GROUP
  5
26FBC6
102
{ACAD_REACTORS
330
1A
102
}
330
1A
100
AcDbGroup
300

 70
     1
 71
     1
340
26FAEA
340
26FAE9
340
26FAE8
340
26FAE7
340
26FAE6
340
26FAE5
340
26FAE4
340
26FAE3
340
26FAE2
340
26FAE1
340
26FAE0
340
26FADF
340
26FADE
340
26FADD
340
26FADC
340
26FADB
340
26FADA
340
26FAD9
340
26FAD8
340
26FAD7
340
26FAD6
340
26FAD5
340
26FAD4
340
26FAD3
340
26FAD2
340
26FAD1
340
26FAD0
340
26FACF
340
26FACE
340
26FACD
340
26FACC
340
26FACB
340
26FACA
340
26FAC9
340
26FAC8
340
26FAC7
340
26FAC6
340
26FAC5
340
26FAC4
340
26FAC3
340
26FAC2
340
26FAC1
340
26FAC0
340
26FABF
340
26FABE
340
26FABD
340
26FABC
340
26FABB
340
26FABA
340
26FAB9
340
26FAB8
340
26FAB7
340
26FAB6
340
26FAB5
340
26FAB4
340
26FAB3
340
26FAB2
340
26FAB1
340
26FAB0
340
26FAAF
340
26FAAE
340
26FAAD
340
26FAAC
340
26FAAB
340
26FAAA
340
26FAA9
340
26FAA8
340
26FAA7
340
26FAA6
340
26FAA5
340
26FAA4
340
26FAA3
340
26FAA2
340
26FAA1
340
26FAA0
340
26FA9F
340
26FA9E
340
26FA9D
340
26FA9C
340
26FA9B
340
26FA9A
340
26FA99
340
26FA98
340
26FA97
340
26FA96
340
26FA95
340
26FA94
340
26FA93
340
26FA92
340
26FA91
340
26FA90
340
26FA8F
340
26FA8E
340
26FA8D
340
26FA8C
340
26FA8B
340
26FA8A
340
26FA89
340
26FA88
340
26FA87
340
26FA86
340
26FA85
340
26FA84
340
26FA83
340
26FA82
340
26FA81
340
26FA80
340
26FA7F
340
26FA7E
340
26FA7D
340
26FA7C
340
26FA7B
340
26FA7A
340
26FA79
340
26FA78
340
26FA77
340
26FA76
340
26FA75
340
26FA74
340
26FA73
340
26FA72
340
26FA71
340
26FA70
340
26FA6F
340
26FA6E
340
26FA6D
340
26FA6C
340
26FA6B
340
26FA6A
340
26FA69
340
26FA68
340
26FA67
340
26FA66
340
26FA65
340
26FA64
340
26FA63
340
26FA62
340
26FA61
340
26FA60
340
26FA5F
340
26FA5E
340
26FA5D
340
26FA5C
340
26FA5B
340
26FA5A
340
26FA59
340
26FA58
340
26FA57
340
26FA56
340
26FA55
340
26FA54
340
26FA53
340
26FA52
340
26FA51
340
26FA50
340
26FA4F
340
26FA4E
340
26FA4D
340
26FA4C
340
26FA4B
340
26FA4A
340
26FA49
340
26FA48
340
26FA47
340
26FA46
340
26FA45
340
26FA44
340
26FA43
340
26FA42
340
26FA41
340
26FA40
340
26FA3F
340
26FA3E
340
26FA3D
340
26FA3C
340
26FA3B
340
26FA3A
340
26FA39
340
26FA38
340
26FA37
340
26FA36
340
26FA35
340
26FA34
340
26FA33
340
26FA32
340
26FA31
340
26FA30
340
26FA2F
340
26FA2E
340
26FA2D
340
26FA2C
340
26FA2B
340
26FA2A
340
26FA29
340
26FA28
340
26FA27
340
26FA26
340
26FA25
340
26FA24
340
26FA23
340
26FA22
340
26FA21
340
26FA20
340
26FA1F
340
26FA1E
340
26FA1D
340
26FA1C
340
26FA1B
340
26FA1A
340
26FA19
340
26FA18
340
26FA17
340
26FA16
340
26FA15
340
26FA14
340
26FA13
340
26FA12
340
26FA11
  0
GROUP
  5
26FBC7
102
{ACAD_REACTORS
330
1A
102
}
330
1A
100
AcDbGroup
300

 70
     1
 71
     1
340
26FBC4
340
26FBC3
340
26FBC2
340
26FBC1
340
26FBC0
340
26FBBF
340
26FBBE
340
26FBBD
340
26FBBC
340
26FBBB
340
26FBBA
340
26FBB9
340
26FBB8
340
26FBB7
340
26FBB6
340
26FBB5
340
26FBB4
340
26FBB3
340
26FBB2
340
26FBB1
340
26FBB0
340
26FBAF
340
26FBAE
340
26FBAD
340
26FBAC
340
26FBAB
340
26FBAA
340
26FBA9
340
26FBA8
340
26FBA7
340
26FBA6
340
26FBA5
340
26FBA4
340
26FBA3
340
26FBA2
340
26FBA1
340
26FBA0
340
26FB9F
340
26FB9E
340
26FB9D
340
26FB9C
340
26FB9B
340
26FB9A
340
26FB99
340
26FB98
340
26FB97
340
26FB96
340
26FB95
340
26FB94
340
26FB93
340
26FB92
340
26FB91
340
26FB90
340
26FB8F
340
26FB8E
340
26FB8D
340
26FB8C
340
26FB8B
340
26FB8A
340
26FB89
340
26FB88
340
26FB87
340
26FB86
340
26FB85
340
26FB84
340
26FB83
340
26FB82
340
26FB81
340
26FB80
340
26FB7F
340
26FB7E
340
26FB7D
340
26FB7C
340
26FB7B
340
26FB7A
340
26FB79
340
26FB78
340
26FB77
340
26FB76
340
26FB75
340
26FB74
340
26FB73
340
26FB72
340
26FB71
340
26FB70
340
26FB6F
340
26FB6E
340
26FB6D
340
26FB6C
340
26FB6B
340
26FB6A
340
26FB69
340
26FB68
340
26FB67
340
26FB66
340
26FB65
340
26FB64
340
26FB63
340
26FB62
340
26FB61
340
26FB60
340
26FB5F
340
26FB5E
340
26FB5D
340
26FB5C
340
26FB5B
340
26FB5A
340
26FB59
340
26FB58
340
26FB57
340
26FB56
340
26FB55
340
26FB54
340
26FB53
340
26FB52
340
26FB51
340
26FB50
340
26FB4F
340
26FB4E
340
26FB4D
340
26FB4C
340
26FB4B
340
26FB4A
340
26FB49
340
26FB48
340
26FB47
340
26FB46
340
26FB45
340
26FB44
340
26FB43
340
26FB42
340
26FB41
340
26FB40
340
26FB3F
340
26FB3E
340
26FB3D
340
26FB3C
340
26FB3B
340
26FB3A
340
26FB39
340
26FB38
340
26FB37
340
26FB36
340
26FB35
340
26FB34
340
26FB33
340
26FB32
340
26FB31
340
26FB30
340
26FB2F
340
26FB2E
340
26FB2D
340
26FB2C
340
26FB2B
340
26FB2A
340
26FB29
340
26FB28
340
26FB27
340
26FB26
340
26FB25
340
26FB24
340
26FB23
340
26FB22
340
26FB21
340
26FB20
340
26FB1F
340
26FB1E
340
26FB1D
340
26FB1C
340
26FB1B
340
26FB1A
340
26FB19
340
26FB18
340
26FB17
340
26FB16
340
26FB15
340
26FB14
340
26FB13
340
26FB12
340
26FB11
340
26FB10
340
26FB0F
340
26FB0E
340
26FB0D
340
26FB0C
340
26FB0B
340
26FB0A
340
26FB09
340
26FB08
340
26FB07
340
26FB06
340
26FB05
340
26FB04
340
26FB03
340
26FB02
340
26FB01
340
26FB00
340
26FAFF
340
26FAFE
340
26FAFD
340
26FAFC
340
26FAFB
340
26FAFA
340
26FAF9
340
26FAF8
340
26FAF7
340
26FAF6
340
26FAF5
340
26FAF4
340
26FAF3
340
26FAF2
340
26FAF1
340
26FAF0
340
26FAEF
340
26FAEE
340
26FAED
340
26FAEC
340
26FAEB
  0
LAYOUT
  5
26E9FB
102
{ACAD_REACTORS
330
1E
102
}
330
1E
100
AcDbPlotSettings
  1

  2
HP Color LaserJet Pro M454
  4

  6

 40
0.0
 41
0.0
 42
0.0
 43
0.0
 44
0.0
 45
0.0
 46
0.0
 47
0.0
 48
0.0
 49
0.0
140
0.0
141
0.0
142
1.0
143
1.0
 70
   688
 72
     0
 73
     0
 74
     5
  7

 75
    16
147
1.0
 76
     0
 77
     2
 78
   300
148
0.0
149
0.0
100
AcDbLayout
  1
Layout1
 70
     1
 71
     1
 10
0.0
 20
0.0
 11
12.0
 21
9.0
 12
0.0
 22
0.0
 32
0.0
 14
0.0
 24
0.0
 34
0.0
 15
0.0
 25
0.0
 35
0.0
146
0.0
 13
0.0
 23
0.0
 33
0.0
 16
1.0
 26
0.0
 36
0.0
 17
0.0
 27
1.0
 37
0.0
 76
     0
330
26E9FA
  0
LAYOUT
  5
20
102
{ACAD_XDICTIONARY
360
249D38
102
}
102
{ACAD_REACTORS
330
1E
102
}
330
1E
100
AcDbPlotSettings
  1

  2
HP ColorLaserJet M253-M254
  4
Letter
  6

 40
4.233333110809326
 41
4.23333740234375
 42
4.23333740234375
 43
4.23333740234375
 44
215.9000091552734
 45
279.3999938964844
 46
0.0
 47
1.245087483350765
 48
6389.240988895313
 49
-12797.21870763758
140
6515.52495177432
141
-12699.63564541289
142
1.0
143
11.94894608905357
 70
 11444
 72
     0
 73
     1
 74
     4
  7
acadlt.ctb
 75
     0
147
0.0836893892186944
 76
     0
 77
     2
 78
   300
148
-162286.7211179409
149
325049.3551739945
100
AcDbLayout
  1
Model
 70
     0
 71
     0
 10
0.0
 20
0.0
 11
0.0
 21
0.0
 12
0.0
 22
0.0
 32
0.0
 14
0.0
 24
0.0
 34
0.0
 15
0.0
 25
0.0
 35
0.0
146
0.0
 13
0.0
 23
0.0
 33
0.0
 16
0.0
 26
0.0
 36
0.0
 17
0.0
 27
0.0
 37
0.0
 76
     0
330
A
331
15
1001
ACAD_PSEXT
1000
HP ColorLaserJet M253-M254
1000
HP ColorLaserJet M253-M254 PCL-6 (V4)
1000
USB001
1000

1070
     0
  0
MATERIAL
  5
8B6
102
{ACAD_XDICTIONARY
360
8B7
102
}
102
{ACAD_REACTORS
330
8AD
102
}
330
8AD
100
AcDbMaterial
  1
ByBlock
 72
     0
 43
0.0208333333333333
 43
0.0
 43
0.0
 43
0.0
 43
0.0
 43
0.0208333333333333
 43
0.0
 43
0.0
 43
0.0
 43
0.0
 43
1.0
 43
0.0
 43
0.0
 43
0.0
 43
0.0
 43
1.0
 77
     0
 47
0.0208333333333333
 47
0.0
 47
0.0
 47
0.0
 47
0.0
 47
0.0208333333333333
 47
0.0
 47
0.0
 47
0.0
 47
0.0
 47
1.0
 47
0.0
 47
0.0
 47
0.0
 47
0.0
 47
1.0
171
     0
 49
0.0208333333333333
 49
0.0
 49
0.0
 49
0.0
 49
0.0
 49
0.0208333333333333
 49
0.0
 49
0.0
 49
0.0
 49
0.0
 49
1.0
 49
0.0
 49
0.0
 49
0.0
 49
0.0
 49
1.0
175
     0
142
0.0208333333333333
142
0.0
142
0.0
142
0.0
142
0.0
142
0.0208333333333333
142
0.0
142
0.0
142
0.0
142
0.0
142
1.0
142
0.0
142
0.0
142
0.0
142
0.0
142
1.0
179
     0
144
0.0208333333333333
144
0.0
144
0.0
144
0.0
144
0.0
144
0.0208333333333333
144
0.0
144
0.0
144
0.0
144
0.0
144
1.0
144
0.0
144
0.0
144
0.0
144
0.0
144
1.0
147
0.0208333333333333
147
0.0
147
0.0
147
0.0
147
0.0
147
0.0208333333333333
147
0.0
147
0.0
147
0.0
147
0.0
147
1.0
147
0.0
147
0.0
147
0.0
147
0.0
147
1.0
  0
MATERIAL
  5
8AE
102
{ACAD_XDICTIONARY
360
8AF
102
}
102
{ACAD_REACTORS
330
8AD
102
}
330
8AD
100
AcDbMaterial
  1
ByLayer
 72
     0
 43
0.0208333333333333
 43
0.0
 43
0.0
 43
0.0
 43
0.0
 43
0.0208333333333333
 43
0.0
 43
0.0
 43
0.0
 43
0.0
 43
1.0
 43
0.0
 43
0.0
 43
0.0
 43
0.0
 43
1.0
 77
     0
 47
0.0208333333333333
 47
0.0
 47
0.0
 47
0.0
 47
0.0
 47
0.0208333333333333
 47
0.0
 47
0.0
 47
0.0
 47
0.0
 47
1.0
 47
0.0
 47
0.0
 47
0.0
 47
0.0
 47
1.0
171
     0
 49
0.0208333333333333
 49
0.0
 49
0.0
 49
0.0
 49
0.0
 49
0.0208333333333333
 49
0.0
 49
0.0
 49
0.0
 49
0.0
 49
1.0
 49
0.0
 49
0.0
 49
0.0
 49
0.0
 49
1.0
175
     0
142
0.0208333333333333
142
0.0
142
0.0
142
0.0
142
0.0
142
0.0208333333333333
142
0.0
142
0.0
142
0.0
142
0.0
142
1.0
142
0.0
142
0.0
142
0.0
142
0.0
142
1.0
179
     0
144
0.0208333333333333
144
0.0
144
0.0
144
0.0
144
0.0
144
0.0208333333333333
144
0.0
144
0.0
144
0.0
144
0.0
144
1.0
144
0.0
144
0.0
144
0.0
144
0.0
144
1.0
147
0.0208333333333333
147
0.0
147
0.0
147
0.0
147
0.0
147
0.0208333333333333
147
0.0
147
0.0
147
0.0
147
0.0
147
1.0
147
0.0
147
0.0
147
0.0
147
0.0
147
1.0
  0
MATERIAL
  5
8BE
102
{ACAD_XDICTIONARY
360
8BF
102
}
102
{ACAD_REACTORS
330
8AD
102
}
330
8AD
100
AcDbMaterial
  1
Global
 72
     0
 43
0.0208333333333333
 43
0.0
 43
0.0
 43
0.0
 43
0.0
 43
0.0208333333333333
 43
0.0
 43
0.0
 43
0.0
 43
0.0
 43
1.0
 43
0.0
 43
0.0
 43
0.0
 43
0.0
 43
1.0
 77
     0
 47
0.0208333333333333
 47
0.0
 47
0.0
 47
0.0
 47
0.0
 47
0.0208333333333333
 47
0.0
 47
0.0
 47
0.0
 47
0.0
 47
1.0
 47
0.0
 47
0.0
 47
0.0
 47
0.0
 47
1.0
171
     0
 49
0.0208333333333333
 49
0.0
 49
0.0
 49
0.0
 49
0.0
 49
0.0208333333333333
 49
0.0
 49
0.0
 49
0.0
 49
0.0
 49
1.0
 49
0.0
 49
0.0
 49
0.0
 49
0.0
 49
1.0
175
     0
142
0.0208333333333333
142
0.0
142
0.0
142
0.0
142
0.0
142
0.0208333333333333
142
0.0
142
0.0
142
0.0
142
0.0
142
1.0
142
0.0
142
0.0
142
0.0
142
0.0
142
1.0
179
     0
144
0.0208333333333333
144
0.0
144
0.0
144
0.0
144
0.0
144
0.0208333333333333
144
0.0
144
0.0
144
0.0
144
0.0
144
1.0
144
0.0
144
0.0
144
0.0
144
0.0
144
1.0
147
0.0208333333333333
147
0.0
147
0.0
147
0.0
147
0.0
147
0.0208333333333333
147
0.0
147
0.0
147
0.0
147
0.0
147
1.0
147
0.0
147
0.0
147
0.0
147
0.0
147
1.0
  0
MLEADERSTYLE
  5
8F5
102
{ACAD_REACTORS
330
8F4
102
}
330
8F4
100
AcDbMLeaderStyle
179
     2
170
     2
171
     1
172
     0
 90
        2
 40
0.0
 41
0.0
173
     1
 91
-1073741824
340
12
 92
       -1
290
     1
 42
1.0
291
     1
 43
1.0
  3
Standard
 44
0.625
300

342
1897EC
174
     1
178
     1
175
     1
176
     0
 93
-1073741824
 45
2.0
292
     0
297
     0
 46
0.18
 94
-1056964608
 47
1.0
 49
1.0
140
1.0
293
     1
141
0.0
294
     1
177
     0
142
1.0
295
     0
296
     0
143
0.5
271
     0
272
     9
273
     9
298
     1
  0
MLINESTYLE
  5
1C
102
{ACAD_REACTORS
330
1B
102
}
330
1B
100
AcDbMlineStyle
  2
STANDARD
 70
     0
  3

 62
     0
 51
90.0
 52
90.0
 71
     2
 49
0.5
 62
   256
  6
BYLAYER
 49
-0.5
 62
   256
  6
BYLAYER
  0
ACDBPLACEHOLDER
  5
1D
102
{ACAD_REACTORS
330
1F
102
}
330
1F
  0
ACDBPOINTCLOUDCOLORMAP
  5
1AD742
102
{ACAD_REACTORS
330
1AD741
102
}
330
1AD741
100
AcDbPointCloudColorMap
 70
     4
  1
C0A3838B-81E3-4506-B908-13ECF523DB68
  1
6DFAB669-B096-4842-9F90-F23CBDD9E410
  1
8AF59545-D22F-46B7-923C-912F71ED57DE
 90
        7
  1
46B3A5C6-4029-4D50-90D3-C49ADB0A2B45
 70
     1
 90
        8
 91
-1040138241
290
     1
 91
-1040155483
290
     1
 91
-1040162945
290
     1
 91
-1040172724
290
     1
 91
-1040177588
290
     1
 91
-1040182452
290
     1
 91
-1040187316
290
     1
 91
-1040187354
290
     1
  1
Hydro
  1
655FCCB9-2DB2-40BC-86BB-A513D3DF3FEE
 70
     1
 90
        6
 91
-1023410177
290
     1
 91
-1026765620
290
     1
 91
-1030121063
290
     1
 91
-1033476506
290
     1
 91
-1036831949
290
     1
 91
-1040187392
290
     1
  1
Grayscale
  1
6DFAB669-B096-4842-9F90-F23CBDD9E410
 70
     1
 90
        5
 91
-1023410232
290
     1
 91
-1024403562
290
     1
 91
-1025396892
290
     1
 91
-1026390222
290
     1
 91
-1027383552
290
     1
  1
Earth
  1
9B45EA40-176A-46B5-9470-1FA6A7880EE3
 70
     1
 90
        5
 91
-1040187137
290
     1
 91
-1040187227
290
     1
 91
-1040187265
290
     1
 91
-1040187316
290
     1
 91
-1040187354
290
     1
  1
Blues
  1
B5E88F37-A921-45DF-9987-B979CE516EF3
 70
     1
 90
        5
 91
-1040122112
290
     1
 91
-1040145152
290
     1
 91
-1040154880
290
     1
 91
-1040167936
290
     1
 91
-1040177664
290
     1
  1
Greens
  1
C0A3838B-81E3-4506-B908-13ECF523DB68
 70
     1
 90
        6
 91
-1023475457
290
     1
 91
-1040187137
290
     1
 91
-1040121857
290
     1
 91
-1040122112
290
     1
 91
-1023410432
290
     1
 91
-1023475712
290
     1
  1
Spectrum
  1
E247D320-B4DE-471F-8E5F-B848819BF6F6
 70
     1
 90
        5
 91
-1023475712
290
     1
 91
-1029373952
290
     1
 91
-1031864320
290
     1
 91
-1035206656
290
     1
 91
-1037697024
290
     1
  1
Reds
 90
        1
  1
8AF59545-D22F-46B7-923C-912F71ED57DE
 70
     1
 90
      256
 91
-1030121063
290
     1
 91
-1030121063
290
     1
 91
-1031840000
290
     1
 91
-1032018688
290
     1
 91
-1034771200
290
     1
 91
-1037458176
290
     1
 91
-1023426816
290
     1
 91
-1027669761
290
     1
 91
-1023442945
290
     1
 91
-1040138241
290
     1
 91
-1030121063
290
     1
 91
-1030121063
290
     1
 91
-1036831949
290
     1
 91
-1030121063
290
     1
 91
-1030121063
290
     1
 91
-1030121063
290
     1
 91
-1030121063
290
     1
 91
-1030121063
290
     1
 91
-1030121063
290
     1
 91
-1030121063
290
     1
 91
-1030121063
290
     1
 91
-1030121063
290
     1
 91
-1030121063
290
     1
 91
-1030121063
290
     1
 91
-1030121063
290
     1
 91
-1030121063
290
     1
 91
-1030121063
290
     1
 91
-1030121063
290
     1
 91
-1030121063
290
     1
 91
-1030121063
290
     1
 91
-1030121063
290
     1
 91
-1030121063
290
     1
 91
-1030121063
290
     1
 91
-1030121063
290
     1
 91
-1030121063
290
     1
 91
-1030121063
290
     1
 91
-1030121063
290
     1
 91
-1030121063
290
     1
 91
-1030121063
290
     1
 91
-1030121063
290
     1
 91
-1030121063
290
     1
 91
-1030121063
290
     1
 91
-1030121063
290
     1
 91
-1030121063
290
     1
 91
-1030121063
290
     1
 91
-1030121063
290
     1
 91
-1030121063
290
     1
 91
-1030121063
290
     1
 91
-1030121063
290
     1
 91
-1030121063
290
     1
 91
-1030121063
290
     1
 91
-1030121063
290
     1
 91
-1030121063
290
     1
 91
-1030121063
290
     1
 91
-1030121063
290
     1
 91
-1030121063
290
     1
 91
-1030121063
290
     1
 91
-1030121063
290
     1
 91
-1030121063
290
     1
 91
-1030121063
290
     1
 91
-1030121063
290
     1
 91
-1030121063
290
     1
 91
-1030121063
290
     1
 91
-1030121063
290
     1
 91
-1030121063
290
     1
 91
-1030121063
290
     1
 91
-1030121063
290
     1
 91
-1030121063
290
     1
 91
-1030121063
290
     1
 91
-1030121063
290
     1
 91
-1030121063
290
     1
 91
-1030121063
290
     1
 91
-1030121063
290
     1
 91
-1030121063
290
     1
 91
-1030121063
290
     1
 91
-1030121063
290
     1
 91
-1030121063
290
     1
 91
-1030121063
290
     1
 91
-1030121063
290
     1
 91
-1030121063
290
     1
 91
-1030121063
290
     1
 91
-1030121063
290
     1
 91
-1030121063
290
     1
 91
-1030121063
290
     1
 91
-1030121063
290
     1
 91
-1030121063
290
     1
 91
-1030121063
290
     1
 91
-1030121063
290
     1
 91
-1030121063
290
     1
 91
-1030121063
290
     1
 91
-1030121063
290
     1
 91
-1030121063
290
     1
 91
-1030121063
290
     1
 91
-1030121063
290
     1
 91
-1030121063
290
     1
 91
-1030121063
290
     1
 91
-1030121063
290
     1
 91
-1030121063
290
     1
 91
-1030121063
290
     1
 91
-1030121063
290
     1
 91
-1030121063
290
     1
 91
-1030121063
290
     1
 91
-1030121063
290
     1
 91
-1030121063
290
     1
 91
-1030121063
290
     1
 91
-1030121063
290
     1
 91
-1030121063
290
     1
 91
-1030121063
290
     1
 91
-1030121063
290
     1
 91
-1030121063
290
     1
 91
-1030121063
290
     1
 91
-1030121063
290
     1
 91
-1030121063
290
     1
 91
-1030121063
290
     1
 91
-1030121063
290
     1
 91
-1030121063
290
     1
 91
-1030121063
290
     1
 91
-1030121063
290
     1
 91
-1030121063
290
     1
 91
-1030121063
290
     1
 91
-1030121063
290
     1
 91
-1030121063
290
     1
 91
-1030121063
290
     1
 91
-1030121063
290
     1
 91
-1030121063
290
     1
 91
-1030121063
290
     1
 91
-1030121063
290
     1
 91
-1030121063
290
     1
 91
-1030121063
290
     1
 91
-1030121063
290
     1
 91
-1030121063
290
     1
 91
-1030121063
290
     1
 91
-1030121063
290
     1
 91
-1030121063
290
     1
 91
-1030121063
290
     1
 91
-1030121063
290
     1
 91
-1030121063
290
     1
 91
-1030121063
290
     1
 91
-1030121063
290
     1
 91
-1030121063
290
     1
 91
-1030121063
290
     1
 91
-1030121063
290
     1
 91
-1030121063
290
     1
 91
-1030121063
290
     1
 91
-1030121063
290
     1
 91
-1030121063
290
     1
 91
-1030121063
290
     1
 91
-1030121063
290
     1
 91
-1030121063
290
     1
 91
-1030121063
290
     1
 91
-1030121063
290
     1
 91
-1030121063
290
     1
 91
-1030121063
290
     1
 91
-1030121063
290
     1
 91
-1030121063
290
     1
 91
-1030121063
290
     1
 91
-1030121063
290
     1
 91
-1030121063
290
     1
 91
-1030121063
290
     1
 91
-1030121063
290
     1
 91
-1030121063
290
     1
 91
-1030121063
290
     1
 91
-1030121063
290
     1
 91
-1030121063
290
     1
 91
-1030121063
290
     1
 91
-1030121063
290
     1
 91
-1030121063
290
     1
 91
-1030121063
290
     1
 91
-1030121063
290
     1
 91
-1030121063
290
     1
 91
-1030121063
290
     1
 91
-1030121063
290
     1
 91
-1030121063
290
     1
 91
-1030121063
290
     1
 91
-1030121063
290
     1
 91
-1030121063
290
     1
 91
-1030121063
290
     1
 91
-1030121063
290
     1
 91
-1030121063
290
     1
 91
-1030121063
290
     1
 91
-1030121063
290
     1
 91
-1030121063
290
     1
 91
-1030121063
290
     1
 91
-1030121063
290
     1
 91
-1030121063
290
     1
 91
-1030121063
290
     1
 91
-1030121063
290
     1
 91
-1030121063
290
     1
 91
-1030121063
290
     1
 91
-1030121063
290
     1
 91
-1030121063
290
     1
 91
-1030121063
290
     1
 91
-1030121063
290
     1
 91
-1030121063
290
     1
 91
-1030121063
290
     1
 91
-1030121063
290
     1
 91
-1030121063
290
     1
 91
-1030121063
290
     1
 91
-1030121063
290
     1
 91
-1030121063
290
     1
 91
-1030121063
290
     1
 91
-1030121063
290
     1
 91
-1030121063
290
     1
 91
-1030121063
290
     1
 91
-1030121063
290
     1
 91
-1030121063
290
     1
 91
-1030121063
290
     1
 91
-1030121063
290
     1
 91
-1030121063
290
     1
 91
-1030121063
290
     1
 91
-1030121063
290
     1
 91
-1030121063
290
     1
 91
-1030121063
290
     1
 91
-1030121063
290
     1
 91
-1030121063
290
     1
 91
-1030121063
290
     1
 91
-1030121063
290
     1
 91
-1030121063
290
     1
 91
-1030121063
290
     1
 91
-1030121063
290
     1
 91
-1030121063
290
     1
 91
-1030121063
290
     1
 91
-1030121063
290
     1
 91
-1030121063
290
     1
 91
-1030121063
290
     1
 91
-1030121063
290
     1
 91
-1030121063
290
     1
 91
-1030121063
290
     1
 91
-1030121063
290
     1
 91
-1030121063
290
     1
 91
-1030121063
290
     1
 91
-1030121063
290
     1
 91
-1030121063
290
     1
 91
-1030121063
290
     1
 91
-1030121063
290
     1
 91
-1030121063
290
     1
 91
-1030121063
290
     1
 91
-1030121063
290
     1
 91
-1030121063
290
     1
 91
-1030121063
290
     1
 91
-1030121063
290
     1
 91
-1030121063
290
     1
 91
-1030121063
290
     1
 91
-1030121063
290
     1
 91
-1030121063
290
     1
 91
-1030121063
290
     1
 91
-1030121063
290
     1
 91
-1030121063
290
     1
 91
-1030121063
290
     1
 91
-1030121063
290
     1
 91
-1030121063
290
     1
 91
-1030121063
290
     1
 91
-1030121063
290
     1
 91
-1030121063
290
     1
 91
-1030121063
290
     1
 91
-1030121063
290
     1
  1
LIDAR Classifications
  0
SCALE
  5
8E3
102
{ACAD_REACTORS
330
8E2
102
}
330
8E2
100
AcDbScale
 70
     0
300
1:1
140
1.0
141
1.0
290
     1
  0
SCALE
  5
8E4
102
{ACAD_REACTORS
330
8E2
102
}
330
8E2
100
AcDbScale
 70
     0
300
1/128" = 1'-0"
140
0.0078125
141
12.0
290
     0
  0
SCALE
  5
8E5
102
{ACAD_REACTORS
330
8E2
102
}
330
8E2
100
AcDbScale
 70
     0
300
1/64" = 1'-0"
140
0.015625
141
12.0
290
     0
  0
SCALE
  5
8E6
102
{ACAD_REACTORS
330
8E2
102
}
330
8E2
100
AcDbScale
 70
     0
300
1/32" = 1'-0"
140
0.03125
141
12.0
290
     0
  0
SCALE
  5
8E7
102
{ACAD_REACTORS
330
8E2
102
}
330
8E2
100
AcDbScale
 70
     0
300
1/16" = 1'-0"
140
0.0625
141
12.0
290
     0
  0
SCALE
  5
8E8
102
{ACAD_REACTORS
330
8E2
102
}
330
8E2
100
AcDbScale
 70
     0
300
3/32" = 1'-0"
140
0.09375
141
12.0
290
     0
  0
SCALE
  5
8E9
102
{ACAD_REACTORS
330
8E2
102
}
330
8E2
100
AcDbScale
 70
     0
300
1/8" = 1'-0"
140
0.125
141
12.0
290
     0
  0
SCALE
  5
8EA
102
{ACAD_REACTORS
330
8E2
102
}
330
8E2
100
AcDbScale
 70
     0
300
3/16" = 1'-0"
140
0.1875
141
12.0
290
     0
  0
SCALE
  5
8EB
102
{ACAD_REACTORS
330
8E2
102
}
330
8E2
100
AcDbScale
 70
     0
300
1/4" = 1'-0"
140
0.25
141
12.0
290
     0
  0
SCALE
  5
8EC
102
{ACAD_REACTORS
330
8E2
102
}
330
8E2
100
AcDbScale
 70
     0
300
3/8" = 1'-0"
140
0.375
141
12.0
290
     0
  0
SCALE
  5
8ED
102
{ACAD_REACTORS
330
8E2
102
}
330
8E2
100
AcDbScale
 70
     0
300
1/2" = 1'-0"
140
0.5
141
12.0
290
     0
  0
SCALE
  5
8EE
102
{ACAD_REACTORS
330
8E2
102
}
330
8E2
100
AcDbScale
 70
     0
300
3/4" = 1'-0"
140
0.75
141
12.0
290
     0
  0
SCALE
  5
8EF
102
{ACAD_REACTORS
330
8E2
102
}
330
8E2
100
AcDbScale
 70
     0
300
1" = 1'-0"
140
1.0
141
12.0
290
     0
  0
SCALE
  5
8F0
102
{ACAD_REACTORS
330
8E2
102
}
330
8E2
100
AcDbScale
 70
     0
300
1-1/2" = 1'-0"
140
1.5
141
12.0
290
     0
  0
SCALE
  5
8F1
102
{ACAD_REACTORS
330
8E2
102
}
330
8E2
100
AcDbScale
 70
     0
300
3" = 1'-0"
140
3.0
141
12.0
290
     0
  0
SCALE
  5
8F2
102
{ACAD_REACTORS
330
8E2
102
}
330
8E2
100
AcDbScale
 70
     0
300
6" = 1'-0"
140
6.0
141
12.0
290
     0
  0
SCALE
  5
8F3
102
{ACAD_REACTORS
330
8E2
102
}
330
8E2
100
AcDbScale
 70
     0
300
1'-0" = 1'-0"
140
12.0
141
12.0
290
     0
  0
ACDBSECTIONVIEWSTYLE
  5
8F7
102
{ACAD_REACTORS
330
8F6
102
}
330
8F6
100
AcDbModelDocViewStyle
 70
     0
  3
Imperial24
290
     0
300
Imperial24
 90
        0
100
AcDbSectionViewStyle
 70
     0
 71
     0
 90
       78
 71
     1
340
17
 62
   256
 40
0.24
340
0
340
0
 62
   256
 40
0.24
300
I, O, Q, S, X, Z
 40
0.48
 90
        3
 40
0.18
 90
        1
 71
     2
340
13
 90
       25
 62
   256
340
13
 90
       50
 62
   256
 40
0.24
 40
0.0
 40
0.24
 71
     3
340
17
 62
   256
 40
0.24
 90
        1
 40
0.75
 90
        1
300
%<\AcVar ViewType \f "%tc1">% %<\AcVar ViewSectionStartId>%-%<\AcVar ViewSectionEndId>%\PSCALE %<\AcVar ViewScale \f "%sn">%
 71
     4
 62
   256
 62
   257
300
ANSI31
 40
1.0
 90
        0
290
     0
290
     0
 90
        6
 40
0.0
 40
1.570796326794896
 40
0.2617993877991494
 40
1.308996938995747
 40
-0.2617993877991494
 40
1.832595714594044
  0
TABLESTYLE
  5
8E1
102
{ACAD_XDICTIONARY
360
26EE58
102
}
102
{ACAD_REACTORS
330
8E0
102
}
330
8E0
100
AcDbTableStyle
280
     0
  3
Standard
 70
     0
 71
     0
 40
0.06
 41
0.06
280
     0
281
     0
  7
Standard
140
1.25
170
     2
 62
     0
 63
     7
283
     0
 90
      512
 91
        0
  1

274
    -2
284
     1
 64
     0
275
    -2
285
     1
 65
     0
276
    -2
286
     1
 66
     0
277
    -2
287
     1
 67
     0
278
    -2
288
     1
 68
     0
279
    -2
289
     1
 69
     0
  7
Standard
140
1.25
170
     5
 62
     0
 63
     7
283
     0
 90
      512
 91
        0
  1

274
    -2
284
     1
 64
     0
275
    -2
285
     1
 65
     0
276
    -2
286
     1
 66
     0
277
    -2
287
     1
 67
     0
278
    -2
288
     1
 68
     0
279
    -2
289
     1
 69
     0
  7
Standard
140
1.25
170
     5
 62
     0
 63
     7
283
     0
 90
      512
 91
        0
  1

274
    -2
284
     1
 64
     0
275
    -2
285
     1
 65
     0
276
    -2
286
     1
 66
     0
277
    -2
287
     1
 67
     0
278
    -2
288
     1
 68
     0
279
    -2
289
     1
 69
     0
  0
VISUALSTYLE
  5
8CC
102
{ACAD_REACTORS
330
8C6
102
}
330
8C6
100
AcDbVisualStyle
  2
2dWireframe
 70
     4
177
     3
291
     0
 70
    58
 90
        0
176
     1
 90
        2
176
     1
 90
        0
176
     1
 90
        0
176
     1
 40
0.6
176
     1
 40
30.0
176
     1
 62
     7
420
 16777215
176
     1
 90
        1
176
     1
 90
        4
176
     1
 62
     7
176
     1
 62
   257
176
     1
 90
        1
176
     1
 90
        1
176
     1
 40
1.0
176
     1
 90
        0
176
     1
 62
   257
176
     1
 40
1.0
176
     1
 90
        1
176
     1
 90
        6
176
     1
 90
        2
176
     1
 62
     7
176
     1
 90
        5
176
     1
 90
        0
176
     1
 90
        0
176
     1
290
     0
176
     1
 90
        1
176
     1
 40
0.0
176
     1
 90
        0
176
     1
290
     1
176
     1
290
     1
176
     1
290
     0
176
     1
290
     0
176
     1
290
     0
176
     1
290
     0
176
     1
290
     0
176
     1
290
     0
176
     1
290
     0
176
     1
 90
       50
176
     1
 40
0.0
176
     1
 40
1.0
176
     1
 90
        0
176
     1
 62
    18
176
     1
 90
       50
176
     1
 90
        3
176
     1
 62
     5
420
      255
176
     1
290
     0
176
     1
 90
       50
176
     1
 90
       50
176
     1
 90
       50
176
     1
290
     0
176
     1
 90
       50
176
     1
 62
   256
176
     0
 40
1.0
176
     0
 90
        2
176
     1
  1
strokes_ogs.tif
176
     1
290
     0
176
     1
 40
1.0
176
     1
 40
1.0
176
     1
  0
VISUALSTYLE
  5
8CB
102
{ACAD_REACTORS
330
8C6
102
}
330
8C6
100
AcDbVisualStyle
  2
Basic
 70
     7
177
     3
291
     1
 70
    58
 90
        1
176
     1
 90
        0
176
     1
 90
        1
176
     1
 90
        0
176
     1
 40
0.6
176
     1
 40
30.0
176
     1
 62
     7
420
 16777215
176
     1
 90
        0
176
     1
 90
        4
176
     1
 62
     7
176
     1
 62
   257
176
     1
 90
        1
176
     1
 90
        1
176
     1
 40
1.0
176
     1
 90
        8
176
     1
 62
     7
176
     1
 40
1.0
176
     1
 90
        1
176
     1
 90
        6
176
     1
 90
        2
176
     1
 62
     7
176
     1
 90
        5
176
     1
 90
        0
176
     1
 90
        0
176
     1
290
     0
176
     1
 90
        1
176
     1
 40
0.0
176
     1
 90
        0
176
     1
290
     0
176
     1
290
     1
176
     1
290
     1
176
     1
290
     0
176
     1
290
     0
176
     1
290
     0
176
     1
290
     0
176
     1
290
     0
176
     1
290
     0
176
     1
 90
       50
176
     1
 40
0.0
176
     1
 40
1.0
176
     1
 90
        0
176
     1
 62
    18
176
     1
 90
       50
176
     1
 90
        3
176
     1
 62
     5
420
      255
176
     1
290
     0
176
     1
 90
       50
176
     1
 90
       50
176
     1
 90
       50
176
     1
290
     0
176
     1
 90
       50
176
     1
 62
   256
176
     0
 40
1.0
176
     0
 90
        2
176
     1
  1
strokes_ogs.tif
176
     1
290
     0
176
     1
 40
1.0
176
     1
 40
1.0
176
     1
  0
VISUALSTYLE
  5
8D2
102
{ACAD_REACTORS
330
8C6
102
}
330
8C6
100
AcDbVisualStyle
  2
Brighten
 70
    12
177
     3
291
     1
 70
    58
 90
        2
176
     1
 90
        2
176
     1
 90
        0
176
     1
 90
        0
176
     1
 40
0.6
176
     1
 40
30.0
176
     1
 62
     7
420
 16777215
176
     1
 90
        1
176
     1
 90
        4
176
     1
 62
     7
176
     1
 62
   257
176
     1
 90
        1
176
     1
 90
        1
176
     1
 40
1.0
176
     1
 90
        8
176
     1
 62
     7
176
     1
 40
1.0
176
     1
 90
        1
176
     1
 90
        6
176
     1
 90
        2
176
     1
 62
     7
176
     1
 90
        5
176
     1
 90
        0
176
     1
 90
        0
176
     1
290
     0
176
     1
 90
        1
176
     1
 40
50.0
176
     1
 90
        0
176
     1
290
     0
176
     1
290
     1
176
     1
290
     1
176
     1
290
     0
176
     1
290
     0
176
     1
290
     0
176
     1
290
     0
176
     1
290
     0
176
     1
290
     0
176
     1
 90
       50
176
     1
 40
0.0
176
     1
 40
1.0
176
     1
 90
        0
176
     1
 62
    18
176
     1
 90
       50
176
     1
 90
        3
176
     1
 62
     5
420
      255
176
     1
290
     0
176
     1
 90
       50
176
     1
 90
       50
176
     1
 90
       50
176
     1
290
     0
176
     1
 90
       50
176
     1
 62
   256
176
     0
 40
1.0
176
     0
 90
        2
176
     1
  1
strokes_ogs.tif
176
     1
290
     0
176
     1
 40
1.0
176
     1
 40
1.0
176
     1
  0
VISUALSTYLE
  5
8D6
102
{ACAD_REACTORS
330
8C6
102
}
330
8C6
100
AcDbVisualStyle
  2
ColorChange
 70
    16
177
     3
291
     1
 70
    58
 90
        2
176
     1
 90
        2
176
     1
 90
        3
176
     1
 90
        0
176
     1
 40
0.6
176
     1
 40
30.0
176
     1
 62
     8
420
  8421504
176
     1
 90
        1
176
     1
 90
        4
176
     1
 62
     7
176
     1
 62
   257
176
     1
 90
        1
176
     1
 90
        1
176
     1
 40
1.0
176
     1
 90
        8
176
     1
 62
     8
420
  8421504
176
     1
 40
1.0
176
     1
 90
        1
176
     1
 90
        6
176
     1
 90
        2
176
     1
 62
     7
176
     1
 90
        5
176
     1
 90
        0
176
     1
 90
        0
176
     1
290
     0
176
     1
 90
        1
176
     1
 40
0.0
176
     1
 90
        0
176
     1
290
     0
176
     1
290
     1
176
     1
290
     1
176
     1
290
     0
176
     1
290
     0
176
     1
290
     0
176
     1
290
     0
176
     1
290
     0
176
     1
290
     0
176
     1
 90
       50
176
     1
 40
0.0
176
     1
 40
1.0
176
     1
 90
        0
176
     1
 62
    18
176
     1
 90
       50
176
     1
 90
        3
176
     1
 62
     5
420
      255
176
     1
290
     0
176
     1
 90
       50
176
     1
 90
       50
176
     1
 90
       50
176
     1
290
     0
176
     1
 90
       50
176
     1
 62
   256
176
     0
 40
1.0
176
     0
 90
        2
176
     1
  1
strokes_ogs.tif
176
     1
290
     0
176
     1
 40
1.0
176
     1
 40
1.0
176
     1
  0
VISUALSTYLE
  5
8CF
102
{ACAD_REACTORS
330
8C6
102
}
330
8C6
100
AcDbVisualStyle
  2
Conceptual
 70
     9
177
     3
291
     0
 70
    58
 90
        3
176
     1
 90
        2
176
     1
 90
        0
176
     1
 90
        0
176
     1
 40
0.6
176
     1
 40
30.0
176
     1
 62
     7
420
 16777215
176
     1
 90
        2
176
     1
 90
        2
176
     1
 62
     7
176
     1
 62
   257
176
     1
 90
        1
176
     1
 90
        1
176
     1
 40
179.0
176
     1
 90
        8
176
     1
 62
     7
176
     1
 40
1.0
176
     1
 90
        1
176
     1
 90
        6
176
     1
 90
        2
176
     1
 62
     7
176
     1
 90
        3
176
     1
 90
        0
176
     1
 90
        0
176
     1
290
     0
176
     1
 90
        1
176
     1
 40
0.0
176
     1
 90
        0
176
     1
290
     0
176
     1
290
     1
176
     1
290
     1
176
     1
290
     0
176
     1
290
     0
176
     1
290
     0
176
     1
290
     0
176
     1
290
     0
176
     1
290
     0
176
     1
 90
       50
176
     1
 40
0.0
176
     1
 40
1.0
176
     1
 90
        0
176
     1
 62
    18
176
     1
 90
       50
176
     1
 90
        3
176
     1
 62
     5
420
      255
176
     1
290
     0
176
     1
 90
       50
176
     1
 90
       50
176
     1
 90
       50
176
     1
290
     0
176
     1
 90
       50
176
     1
 62
   256
176
     0
 40
1.0
176
     0
 90
        2
176
     1
  1
strokes_ogs.tif
176
     1
290
     0
176
     1
 40
1.0
176
     1
 40
1.0
176
     1
  0
VISUALSTYLE
  5
8D1
102
{ACAD_REACTORS
330
8C6
102
}
330
8C6
100
AcDbVisualStyle
  2
Dim
 70
    11
177
     3
291
     1
 70
    58
 90
        2
176
     1
 90
        2
176
     1
 90
        0
176
     1
 90
        0
176
     1
 40
0.6
176
     1
 40
30.0
176
     1
 62
     7
420
 16777215
176
     1
 90
        1
176
     1
 90
        4
176
     1
 62
     7
176
     1
 62
   257
176
     1
 90
        1
176
     1
 90
        1
176
     1
 40
1.0
176
     1
 90
        8
176
     1
 62
     7
176
     1
 40
1.0
176
     1
 90
        1
176
     1
 90
        6
176
     1
 90
        2
176
     1
 62
     7
176
     1
 90
        5
176
     1
 90
        0
176
     1
 90
        0
176
     1
290
     0
176
     1
 90
        1
176
     1
 40
-50.0
176
     1
 90
        0
176
     1
290
     0
176
     1
290
     1
176
     1
290
     1
176
     1
290
     0
176
     1
290
     0
176
     1
290
     0
176
     1
290
     0
176
     1
290
     0
176
     1
290
     0
176
     1
 90
       50
176
     1
 40
0.0
176
     1
 40
1.0
176
     1
 90
        0
176
     1
 62
    18
176
     1
 90
       50
176
     1
 90
        3
176
     1
 62
     5
420
      255
176
     1
290
     0
176
     1
 90
       50
176
     1
 90
       50
176
     1
 90
       50
176
     1
290
     0
176
     1
 90
       50
176
     1
 62
   256
176
     0
 40
1.0
176
     0
 90
        2
176
     1
  1
strokes_ogs.tif
176
     1
290
     0
176
     1
 40
1.0
176
     1
 40
1.0
176
     1
  0
VISUALSTYLE
  5
8DE
102
{ACAD_REACTORS
330
8C6
102
}
330
8C6
100
AcDbVisualStyle
  2
EdgeColorOff
 70
    22
177
     3
291
     1
 70
    58
 90
        2
176
     0
 90
        2
176
     0
 90
        0
176
     0
 90
        0
176
     0
 40
0.6
176
     0
 40
30.0
176
     0
 62
     7
420
 16777215
176
     0
 90
        1
176
     0
 90
        4
176
     0
 62
     7
176
     0
 62
   257
176
     0
 90
        1
176
     0
 90
        1
176
     0
 40
1.0
176
     0
 90
        8
176
     2
 62
     7
176
     0
 40
1.0
176
     0
 90
        1
176
     0
 90
        6
176
     0
 90
        2
176
     0
 62
     7
176
     0
 90
        5
176
     0
 90
        0
176
     0
 90
        0
176
     0
290
     0
176
     0
 90
        1
176
     0
 40
0.0
176
     0
 90
        0
176
     0
290
     0
176
     0
290
     1
176
     0
290
     1
176
     0
290
     0
176
     0
290
     0
176
     0
290
     0
176
     0
290
     0
176
     0
290
     0
176
     0
290
     0
176
     0
 90
       50
176
     0
 40
0.0
176
     0
 40
1.0
176
     0
 90
        0
176
     0
 62
    18
176
     0
 90
       50
176
     0
 90
        3
176
     0
 62
     5
420
      255
176
     0
290
     0
176
     0
 90
       50
176
     0
 90
       50
176
     0
 90
       50
176
     0
290
     0
176
     0
 90
       50
176
     0
 62
   256
176
     0
 40
1.0
176
     0
 90
        2
176
     0
  1
strokes_ogs.tif
176
     0
290
     0
176
     0
 40
1.0
176
     0
 40
1.0
176
     0
  0
VISUALSTYLE
  5
8D5
102
{ACAD_REACTORS
330
8C6
102
}
330
8C6
100
AcDbVisualStyle
  2
Facepattern
 70
    15
177
     3
291
     1
 70
    58
 90
        2
176
     1
 90
        2
176
     1
 90
        0
176
     1
 90
        0
176
     1
 40
0.6
176
     1
 40
30.0
176
     1
 62
     7
420
 16777215
176
     1
 90
        1
176
     1
 90
        4
176
     1
 62
     7
176
     1
 62
   257
176
     1
 90
        1
176
     1
 90
        1
176
     1
 40
1.0
176
     1
 90
        8
176
     1
 62
     7
176
     1
 40
1.0
176
     1
 90
        1
176
     1
 90
        6
176
     1
 90
        2
176
     1
 62
     7
176
     1
 90
        5
176
     1
 90
        0
176
     1
 90
        0
176
     1
290
     0
176
     1
 90
        1
176
     1
 40
0.0
176
     1
 90
        0
176
     1
290
     0
176
     1
290
     1
176
     1
290
     1
176
     1
290
     0
176
     1
290
     0
176
     1
290
     0
176
     1
290
     0
176
     1
290
     0
176
     1
290
     0
176
     1
 90
       50
176
     1
 40
0.0
176
     1
 40
1.0
176
     1
 90
        0
176
     1
 62
    18
176
     1
 90
       50
176
     1
 90
        3
176
     1
 62
     5
420
      255
176
     1
290
     0
176
     1
 90
       50
176
     1
 90
       50
176
     1
 90
       50
176
     1
290
     0
176
     1
 90
       50
176
     1
 62
   256
176
     0
 40
1.0
176
     0
 90
        2
176
     1
  1
strokes_ogs.tif
176
     1
290
     0
176
     1
 40
1.0
176
     1
 40
1.0
176
     1
  0
VISUALSTYLE
  5
8C7
102
{ACAD_REACTORS
330
8C6
102
}
330
8C6
100
AcDbVisualStyle
  2
Flat
 70
     0
177
     3
291
     1
 70
    58
 90
        2
176
     1
 90
        1
176
     1
 90
        1
176
     1
 90
        2
176
     1
 40
0.6
176
     1
 40
30.0
176
     1
 62
     7
420
 16777215
176
     1
 90
        0
176
     1
 90
        0
176
     1
 62
     7
176
     1
 62
   257
176
     1
 90
        1
176
     1
 90
        1
176
     1
 40
1.0
176
     1
 90
        8
176
     1
 62
     7
176
     1
 40
1.0
176
     1
 90
        1
176
     1
 90
        6
176
     1
 90
        2
176
     1
 62
     7
176
     1
 90
        5
176
     1
 90
        0
176
     1
 90
        0
176
     1
290
     0
176
     1
 90
       13
176
     1
 40
0.0
176
     1
 90
        0
176
     1
290
     0
176
     1
290
     1
176
     1
290
     1
176
     1
290
     0
176
     1
290
     0
176
     1
290
     0
176
     1
290
     0
176
     1
290
     0
176
     1
290
     0
176
     1
 90
       50
176
     1
 40
0.0
176
     1
 40
1.0
176
     1
 90
        0
176
     1
 62
    18
176
     1
 90
       50
176
     1
 90
        3
176
     1
 62
     5
420
      255
176
     1
290
     0
176
     1
 90
       50
176
     1
 90
       50
176
     1
 90
       50
176
     1
290
     0
176
     1
 90
       50
176
     1
 62
   256
176
     0
 40
1.0
176
     0
 90
        2
176
     1
  1
strokes_ogs.tif
176
     1
290
     0
176
     1
 40
1.0
176
     1
 40
1.0
176
     1
  0
VISUALSTYLE
  5
8C8
102
{ACAD_REACTORS
330
8C6
102
}
330
8C6
100
AcDbVisualStyle
  2
FlatWithEdges
 70
     1
177
     3
291
     1
 70
    58
 90
        2
176
     1
 90
        1
176
     1
 90
        1
176
     1
 90
        2
176
     1
 40
0.6
176
     1
 40
30.0
176
     1
 62
     7
420
 16777215
176
     1
 90
        1
176
     1
 90
        0
176
     1
 62
     7
176
     1
 62
   257
176
     1
 90
        1
176
     1
 90
        1
176
     1
 40
1.0
176
     1
 90
        0
176
     1
 62
   257
176
     1
 40
1.0
176
     1
 90
        1
176
     1
 90
        6
176
     1
 90
        2
176
     1
 62
     7
176
     1
 90
        5
176
     1
 90
        0
176
     1
 90
        0
176
     1
290
     0
176
     1
 90
       13
176
     1
 40
0.0
176
     1
 90
        0
176
     1
290
     0
176
     1
290
     1
176
     1
290
     1
176
     1
290
     0
176
     1
290
     0
176
     1
290
     0
176
     1
290
     0
176
     1
290
     0
176
     1
290
     0
176
     1
 90
       50
176
     1
 40
0.0
176
     1
 40
1.0
176
     1
 90
        0
176
     1
 62
    18
176
     1
 90
       50
176
     1
 90
        3
176
     1
 62
     5
420
      255
176
     1
290
     0
176
     1
 90
       50
176
     1
 90
       50
176
     1
 90
       50
176
     1
290
     0
176
     1
 90
       50
176
     1
 62
   256
176
     0
 40
1.0
176
     0
 90
        2
176
     1
  1
strokes_ogs.tif
176
     1
290
     0
176
     1
 40
1.0
176
     1
 40
1.0
176
     1
  0
VISUALSTYLE
  5
8C9
102
{ACAD_REACTORS
330
8C6
102
}
330
8C6
100
AcDbVisualStyle
  2
Gouraud
 70
     2
177
     3
291
     1
 70
    58
 90
        2
176
     1
 90
        2
176
     1
 90
        1
176
     1
 90
        2
176
     1
 40
0.6
176
     1
 40
30.0
176
     1
 62
     7
420
 16777215
176
     1
 90
        0
176
     1
 90
        0
176
     1
 62
     7
176
     1
 62
   257
176
     1
 90
        1
176
     1
 90
        1
176
     1
 40
1.0
176
     1
 90
        0
176
     1
 62
     7
176
     1
 40
1.0
176
     1
 90
        1
176
     1
 90
        6
176
     1
 90
        2
176
     1
 62
     7
176
     1
 90
        5
176
     1
 90
        0
176
     1
 90
        0
176
     1
290
     0
176
     1
 90
       13
176
     1
 40
0.0
176
     1
 90
        0
176
     1
290
     0
176
     1
290
     1
176
     1
290
     1
176
     1
290
     0
176
     1
290
     0
176
     1
290
     0
176
     1
290
     0
176
     1
290
     0
176
     1
290
     0
176
     1
 90
       50
176
     1
 40
0.0
176
     1
 40
1.0
176
     1
 90
        0
176
     1
 62
    18
176
     1
 90
       50
176
     1
 90
        3
176
     1
 62
     5
420
      255
176
     1
290
     0
176
     1
 90
       50
176
     1
 90
       50
176
     1
 90
       50
176
     1
290
     0
176
     1
 90
       50
176
     1
 62
   256
176
     0
 40
1.0
176
     0
 90
        2
176
     1
  1
strokes_ogs.tif
176
     1
290
     0
176
     1
 40
1.0
176
     1
 40
1.0
176
     1
  0
VISUALSTYLE
  5
8CA
102
{ACAD_REACTORS
330
8C6
102
}
330
8C6
100
AcDbVisualStyle
  2
GouraudWithEdges
 70
     3
177
     3
291
     1
 70
    58
 90
        2
176
     1
 90
        2
176
     1
 90
        1
176
     1
 90
        2
176
     1
 40
0.6
176
     1
 40
30.0
176
     1
 62
     7
420
 16777215
176
     1
 90
        1
176
     1
 90
        0
176
     1
 62
     7
176
     1
 62
   257
176
     1
 90
        1
176
     1
 90
        1
176
     1
 40
1.0
176
     1
 90
        0
176
     1
 62
   257
176
     1
 40
1.0
176
     1
 90
        1
176
     1
 90
        6
176
     1
 90
        2
176
     1
 62
     7
176
     1
 90
        5
176
     1
 90
        0
176
     1
 90
        0
176
     1
290
     0
176
     1
 90
       13
176
     1
 40
0.0
176
     1
 90
        0
176
     1
290
     0
176
     1
290
     1
176
     1
290
     1
176
     1
290
     0
176
     1
290
     0
176
     1
290
     0
176
     1
290
     0
176
     1
290
     0
176
     1
290
     0
176
     1
 90
       50
176
     1
 40
0.0
176
     1
 40
1.0
176
     1
 90
        0
176
     1
 62
    18
176
     1
 90
       50
176
     1
 90
        3
176
     1
 62
     5
420
      255
176
     1
290
     0
176
     1
 90
       50
176
     1
 90
       50
176
     1
 90
       50
176
     1
290
     0
176
     1
 90
       50
176
     1
 62
   256
176
     0
 40
1.0
176
     0
 90
        2
176
     1
  1
strokes_ogs.tif
176
     1
290
     0
176
     1
 40
1.0
176
     1
 40
1.0
176
     1
  0
VISUALSTYLE
  5
8CE
102
{ACAD_REACTORS
330
8C6
102
}
330
8C6
100
AcDbVisualStyle
  2
Hidden
 70
     6
177
     3
291
     0
 70
    58
 90
        1
176
     1
 90
        2
176
     1
 90
        2
176
     1
 90
        0
176
     1
 40
0.6
176
     1
 40
30.0
176
     1
 62
     7
420
 16777215
176
     1
 90
        2
176
     1
 90
        2
176
     1
 62
     7
176
     1
 62
   257
176
     1
 90
        2
176
     1
 90
        1
176
     1
 40
40.0
176
     1
 90
        0
176
     1
 62
   257
176
     1
 40
1.0
176
     1
 90
        1
176
     1
 90
        6
176
     1
 90
        2
176
     1
 62
     7
176
     1
 90
        3
176
     1
 90
        0
176
     1
 90
        0
176
     1
290
     0
176
     1
 90
        1
176
     1
 40
0.0
176
     1
 90
        0
176
     1
290
     0
176
     1
290
     1
176
     1
290
     1
176
     1
290
     0
176
     1
290
     0
176
     1
290
     0
176
     1
290
     0
176
     1
290
     0
176
     1
290
     0
176
     1
 90
       50
176
     1
 40
0.0
176
     1
 40
1.0
176
     1
 90
        0
176
     1
 62
    18
176
     1
 90
       50
176
     1
 90
        3
176
     1
 62
     5
420
      255
176
     1
290
     0
176
     1
 90
       50
176
     1
 90
       50
176
     1
 90
       50
176
     1
290
     0
176
     1
 90
       50
176
     1
 62
   256
176
     0
 40
1.0
176
     0
 90
        2
176
     1
  1
strokes_ogs.tif
176
     1
290
     0
176
     1
 40
1.0
176
     1
 40
1.0
176
     1
  0
VISUALSTYLE
  5
8DC
102
{ACAD_REACTORS
330
8C6
102
}
330
8C6
100
AcDbVisualStyle
  2
JitterOff
 70
    20
177
     3
291
     1
 70
    58
 90
        2
176
     0
 90
        2
176
     0
 90
        0
176
     0
 90
        0
176
     0
 40
0.6
176
     0
 40
30.0
176
     0
 62
     7
420
 16777215
176
     0
 90
        1
176
     0
 90
        4
176
     0
 62
     7
176
     0
 62
   257
176
     0
 90
        1
176
     0
 90
        1
176
     0
 40
1.0
176
     0
 90
       10
176
     2
 62
     7
176
     0
 40
1.0
176
     0
 90
        1
176
     0
 90
        6
176
     0
 90
        2
176
     0
 62
     7
176
     0
 90
        5
176
     0
 90
        0
176
     0
 90
        0
176
     0
290
     0
176
     0
 90
        1
176
     0
 40
0.0
176
     0
 90
        0
176
     0
290
     0
176
     0
290
     1
176
     0
290
     1
176
     0
290
     0
176
     0
290
     0
176
     0
290
     0
176
     0
290
     0
176
     0
290
     0
176
     0
290
     0
176
     0
 90
       50
176
     0
 40
0.0
176
     0
 40
1.0
176
     0
 90
        0
176
     0
 62
    18
176
     0
 90
       50
176
     0
 90
        3
176
     0
 62
     5
420
      255
176
     0
290
     0
176
     0
 90
       50
176
     0
 90
       50
176
     0
 90
       50
176
     0
290
     0
176
     0
 90
       50
176
     0
 62
   256
176
     0
 40
1.0
176
     0
 90
        2
176
     0
  1
strokes_ogs.tif
176
     0
290
     0
176
     0
 40
1.0
176
     0
 40
1.0
176
     0
  0
VISUALSTYLE
  5
8D4
102
{ACAD_REACTORS
330
8C6
102
}
330
8C6
100
AcDbVisualStyle
  2
Linepattern
 70
    14
177
     3
291
     1
 70
    58
 90
        2
176
     1
 90
        2
176
     1
 90
        0
176
     1
 90
        0
176
     1
 40
0.6
176
     1
 40
30.0
176
     1
 62
     7
420
 16777215
176
     1
 90
        1
176
     1
 90
        4
176
     1
 62
     7
176
     1
 62
   257
176
     1
 90
        7
176
     1
 90
        7
176
     1
 40
1.0
176
     1
 90
        8
176
     1
 62
     7
176
     1
 40
1.0
176
     1
 90
        1
176
     1
 90
        6
176
     1
 90
        2
176
     1
 62
     7
176
     1
 90
        5
176
     1
 90
        0
176
     1
 90
        0
176
     1
290
     0
176
     1
 90
        1
176
     1
 40
0.0
176
     1
 90
        0
176
     1
290
     0
176
     1
290
     1
176
     1
290
     1
176
     1
290
     0
176
     1
290
     0
176
     1
290
     0
176
     1
290
     0
176
     1
290
     0
176
     1
290
     0
176
     1
 90
       50
176
     1
 40
0.0
176
     1
 40
1.0
176
     1
 90
        0
176
     1
 62
    18
176
     1
 90
       50
176
     1
 90
        3
176
     1
 62
     5
420
      255
176
     1
290
     0
176
     1
 90
       50
176
     1
 90
       50
176
     1
 90
       50
176
     1
290
     0
176
     1
 90
       50
176
     1
 62
   256
176
     0
 40
1.0
176
     0
 90
        2
176
     1
  1
strokes_ogs.tif
176
     1
290
     0
176
     1
 40
1.0
176
     1
 40
1.0
176
     1
  0
VISUALSTYLE
  5
8DD
102
{ACAD_REACTORS
330
8C6
102
}
330
8C6
100
AcDbVisualStyle
  2
OverhangOff
 70
    21
177
     3
291
     1
 70
    58
 90
        2
176
     0
 90
        2
176
     0
 90
        0
176
     0
 90
        0
176
     0
 40
0.6
176
     0
 40
30.0
176
     0
 62
     7
420
 16777215
176
     0
 90
        1
176
     0
 90
        4
176
     0
 62
     7
176
     0
 62
   257
176
     0
 90
        1
176
     0
 90
        1
176
     0
 40
1.0
176
     0
 90
        9
176
     2
 62
     7
176
     0
 40
1.0
176
     0
 90
        1
176
     0
 90
        6
176
     0
 90
        2
176
     0
 62
     7
176
     0
 90
        5
176
     0
 90
        0
176
     0
 90
        0
176
     0
290
     0
176
     0
 90
        1
176
     0
 40
0.0
176
     0
 90
        0
176
     0
290
     0
176
     0
290
     1
176
     0
290
     1
176
     0
290
     0
176
     0
290
     0
176
     0
290
     0
176
     0
290
     0
176
     0
290
     0
176
     0
290
     0
176
     0
 90
       50
176
     0
 40
0.0
176
     0
 40
1.0
176
     0
 90
        0
176
     0
 62
    18
176
     0
 90
       50
176
     0
 90
        3
176
     0
 62
     5
420
      255
176
     0
290
     0
176
     0
 90
       50
176
     0
 90
       50
176
     0
 90
       50
176
     0
290
     0
176
     0
 90
       50
176
     0
 62
   256
176
     0
 40
1.0
176
     0
 90
        2
176
     0
  1
strokes_ogs.tif
176
     0
290
     0
176
     0
 40
1.0
176
     0
 40
1.0
176
     0
  0
VISUALSTYLE
  5
8D0
102
{ACAD_REACTORS
330
8C6
102
}
330
8C6
100
AcDbVisualStyle
  2
Realistic
 70
     8
177
     3
291
     0
 70
    58
 90
        2
176
     1
 90
        3
176
     1
 90
        0
176
     1
 90
        2
176
     1
 40
0.6
176
     1
 40
30.0
176
     1
 62
     7
420
 16777215
176
     1
 90
        0
176
     1
 90
        0
176
     1
 62
     7
176
     1
 62
   257
176
     1
 90
        1
176
     1
 90
        1
176
     1
 40
1.0
176
     1
 90
        8
176
     1
 62
   257
176
     1
 40
1.0
176
     1
 90
        1
176
     1
 90
        6
176
     1
 90
        2
176
     1
 62
     7
176
     1
 90
        3
176
     1
 90
        0
176
     1
 90
        0
176
     1
290
     0
176
     1
 90
       13
176
     1
 40
0.0
176
     1
 90
        0
176
     1
290
     0
176
     1
290
     1
176
     1
290
     1
176
     1
290
     0
176
     1
290
     0
176
     1
290
     0
176
     1
290
     0
176
     1
290
     0
176
     1
290
     0
176
     1
 90
       50
176
     1
 40
0.0
176
     1
 40
1.0
176
     1
 90
        0
176
     1
 62
    18
176
     1
 90
       50
176
     1
 90
        3
176
     1
 62
     5
420
      255
176
     1
290
     0
176
     1
 90
       50
176
     1
 90
       50
176
     1
 90
       50
176
     1
290
     0
176
     1
 90
       50
176
     1
 62
   256
176
     0
 40
1.0
176
     0
 90
        2
176
     1
  1
strokes_ogs.tif
176
     1
290
     0
176
     1
 40
1.0
176
     1
 40
1.0
176
     1
  0
VISUALSTYLE
  5
8DB
102
{ACAD_REACTORS
330
8C6
102
}
330
8C6
100
AcDbVisualStyle
  2
Shaded
 70
    27
177
     3
291
     0
 70
    58
 90
        2
176
     1
 90
        2
176
     1
 90
        1
176
     1
 90
        2
176
     1
 40
0.6
176
     1
 40
30.0
176
     1
 62
     7
420
 16777215
176
     1
 90
        0
176
     1
 90
        4
176
     1
 62
     7
176
     1
 62
   257
176
     1
 90
        1
176
     1
 90
        1
176
     1
 40
1.0
176
     1
 90
        8
176
     1
 62
   257
176
     1
 40
1.0
176
     1
 90
        1
176
     1
 90
        6
176
     1
 90
        2
176
     1
 62
     8
420
  7895160
176
     1
 90
        3
176
     1
 90
        0
176
     1
 90
        0
176
     1
290
     0
176
     1
 90
        5
176
     1
 40
0.0
176
     1
 90
        0
176
     1
290
     0
176
     1
290
     1
176
     1
290
     1
176
     1
290
     0
176
     1
290
     0
176
     1
290
     0
176
     1
290
     0
176
     1
290
     0
176
     1
290
     0
176
     1
 90
       50
176
     1
 40
0.0
176
     1
 40
1.0
176
     1
 90
        0
176
     1
 62
    18
176
     1
 90
       50
176
     1
 90
        3
176
     1
 62
     5
420
      255
176
     1
290
     0
176
     1
 90
       50
176
     1
 90
       50
176
     1
 90
       50
176
     1
290
     0
176
     1
 90
       50
176
     1
 62
   256
176
     0
 40
1.0
176
     0
 90
        2
176
     1
  1
strokes_ogs.tif
176
     1
290
     0
176
     1
 40
1.0
176
     1
 40
1.0
176
     1
  0
VISUALSTYLE
  5
8DA
102
{ACAD_REACTORS
330
8C6
102
}
330
8C6
100
AcDbVisualStyle
  2
Shaded with edges
 70
    26
177
     3
291
     0
 70
    58
 90
        2
176
     1
 90
        2
176
     1
 90
        1
176
     1
 90
        2
176
     1
 40
0.6
176
     1
 40
30.0
176
     1
 62
     7
420
 16777215
176
     1
 90
        1
176
     1
 90
        2
176
     1
 62
     7
176
     1
 62
   257
176
     1
 90
        2
176
     1
 90
        1
176
     1
 40
1.0
176
     1
 90
        8
176
     1
 62
   257
176
     1
 40
1.0
176
     1
 90
        1
176
     1
 90
        6
176
     1
 90
        2
176
     1
 62
     7
176
     1
 90
        3
176
     1
 90
        0
176
     1
 90
        0
176
     1
290
     0
176
     1
 90
        5
176
     1
 40
0.0
176
     1
 90
        0
176
     1
290
     0
176
     1
290
     1
176
     1
290
     1
176
     1
290
     0
176
     1
290
     0
176
     1
290
     0
176
     1
290
     0
176
     1
290
     0
176
     1
290
     0
176
     1
 90
       50
176
     1
 40
0.0
176
     1
 40
1.0
176
     1
 90
        0
176
     1
 62
    18
176
     1
 90
       50
176
     1
 90
        3
176
     1
 62
     5
420
      255
176
     1
290
     0
176
     1
 90
       50
176
     1
 90
       50
176
     1
 90
       50
176
     1
290
     0
176
     1
 90
       50
176
     1
 62
   256
176
     0
 40
1.0
176
     0
 90
        2
176
     1
  1
strokes_ogs.tif
176
     1
290
     0
176
     1
 40
1.0
176
     1
 40
1.0
176
     1
  0
VISUALSTYLE
  5
8D7
102
{ACAD_REACTORS
330
8C6
102
}
330
8C6
100
AcDbVisualStyle
  2
Shades of Gray
 70
    23
177
     3
291
     0
 70
    58
 90
        2
176
     1
 90
        2
176
     1
 90
        3
176
     1
 90
        0
176
     1
 40
0.6
176
     1
 40
30.0
176
     1
 62
     7
420
 16777215
176
     1
 90
        2
176
     1
 90
        2
176
     1
 62
     7
176
     1
 62
     7
176
     1
 90
        1
176
     1
 90
        1
176
     1
 40
40.0
176
     1
 90
        8
176
     1
 62
     7
176
     1
 40
1.0
176
     1
 90
        1
176
     1
 90
        6
176
     1
 90
        2
176
     1
 62
     7
176
     1
 90
        3
176
     1
 90
        0
176
     1
 90
        0
176
     1
290
     0
176
     1
 90
        1
176
     1
 40
0.0
176
     1
 90
        0
176
     1
290
     0
176
     1
290
     1
176
     1
290
     1
176
     1
290
     0
176
     1
290
     0
176
     1
290
     0
176
     1
290
     0
176
     1
290
     0
176
     1
290
     0
176
     1
 90
       50
176
     1
 40
0.0
176
     1
 40
1.0
176
     1
 90
        0
176
     1
 62
    18
176
     1
 90
       50
176
     1
 90
        3
176
     1
 62
     5
420
      255
176
     1
290
     0
176
     1
 90
       50
176
     1
 90
       50
176
     1
 90
       50
176
     1
290
     0
176
     1
 90
       50
176
     1
 62
   256
176
     0
 40
1.0
176
     0
 90
        2
176
     1
  1
strokes_ogs.tif
176
     1
290
     0
176
     1
 40
1.0
176
     1
 40
1.0
176
     1
  0
VISUALSTYLE
  5
8D8
102
{ACAD_REACTORS
330
8C6
102
}
330
8C6
100
AcDbVisualStyle
  2
Sketchy
 70
    24
177
     3
291
     0
 70
    58
 90
        1
176
     1
 90
        2
176
     1
 90
        2
176
     1
 90
        0
176
     1
 40
0.6
176
     1
 40
30.0
176
     1
 62
     7
420
 16777215
176
     1
 90
        2
176
     1
 90
        2
176
     1
 62
     7
176
     1
 62
     7
176
     1
 90
        1
176
     1
 90
        1
176
     1
 40
40.0
176
     1
 90
       11
176
     1
 62
     7
176
     1
 40
1.0
176
     1
 90
        1
176
     1
 90
        6
176
     1
 90
        2
176
     1
 62
     7
176
     1
 90
        6
176
     1
 90
        0
176
     1
 90
        0
176
     1
290
     0
176
     1
 90
        1
176
     1
 40
0.0
176
     1
 90
        0
176
     1
290
     0
176
     1
290
     1
176
     1
290
     1
176
     1
290
     0
176
     1
290
     0
176
     1
290
     0
176
     1
290
     0
176
     1
290
     0
176
     1
290
     0
176
     1
 90
       50
176
     1
 40
0.0
176
     1
 40
1.0
176
     1
 90
        0
176
     1
 62
    18
176
     1
 90
       50
176
     1
 90
        3
176
     1
 62
     5
420
      255
176
     1
290
     0
176
     1
 90
       50
176
     1
 90
       50
176
     1
 90
       50
176
     1
290
     0
176
     1
 90
       50
176
     1
 62
   256
176
     0
 40
1.0
176
     0
 90
        2
176
     1
  1
strokes_ogs.tif
176
     1
290
     0
176
     1
 40
1.0
176
     1
 40
1.0
176
     1
  0
VISUALSTYLE
  5
8D3
102
{ACAD_REACTORS
330
8C6
102
}
330
8C6
100
AcDbVisualStyle
  2
Thicken
 70
    13
177
     3
291
     1
 70
    58
 90
        2
176
     1
 90
        2
176
     1
 90
        0
176
     1
 90
        0
176
     1
 40
0.6
176
     1
 40
30.0
176
     1
 62
     7
420
 16777215
176
     1
 90
        1
176
     1
 90
        4
176
     1
 62
     7
176
     1
 62
   257
176
     1
 90
        1
176
     1
 90
        1
176
     1
 40
1.0
176
     1
 90
       12
176
     1
 62
     7
176
     1
 40
1.0
176
     1
 90
        1
176
     1
 90
        6
176
     1
 90
        2
176
     1
 62
     7
176
     1
 90
        5
176
     1
 90
        0
176
     1
 90
        0
176
     1
290
     0
176
     1
 90
        1
176
     1
 40
0.0
176
     1
 90
        0
176
     1
290
     0
176
     1
290
     1
176
     1
290
     1
176
     1
290
     0
176
     1
290
     0
176
     1
290
     0
176
     1
290
     0
176
     1
290
     0
176
     1
290
     0
176
     1
 90
       50
176
     1
 40
0.0
176
     1
 40
1.0
176
     1
 90
        0
176
     1
 62
    18
176
     1
 90
       50
176
     1
 90
        3
176
     1
 62
     5
420
      255
176
     1
290
     0
176
     1
 90
       50
176
     1
 90
       50
176
     1
 90
       50
176
     1
290
     0
176
     1
 90
       50
176
     1
 62
   256
176
     0
 40
1.0
176
     0
 90
        2
176
     1
  1
strokes_ogs.tif
176
     1
290
     0
176
     1
 40
1.0
176
     1
 40
1.0
176
     1
  0
VISUALSTYLE
  5
8CD
102
{ACAD_REACTORS
330
8C6
102
}
330
8C6
100
AcDbVisualStyle
  2
Wireframe
 70
     5
177
     3
291
     0
 70
    58
 90
        0
176
     1
 90
        2
176
     1
 90
        0
176
     1
 90
        0
176
     1
 40
0.6
176
     1
 40
30.0
176
     1
 62
     7
420
 16777215
176
     1
 90
        1
176
     1
 90
        4
176
     1
 62
     7
176
     1
 62
   257
176
     1
 90
        1
176
     1
 90
        1
176
     1
 40
1.0
176
     1
 90
        0
176
     1
 62
   257
176
     1
 40
1.0
176
     1
 90
        1
176
     1
 90
        6
176
     1
 90
        2
176
     1
 62
     7
176
     1
 90
        3
176
     1
 90
        0
176
     1
 90
        0
176
     1
290
     0
176
     1
 90
        1
176
     1
 40
0.0
176
     1
 90
        0
176
     1
290
     0
176
     1
290
     1
176
     1
290
     1
176
     1
290
     0
176
     1
290
     0
176
     1
290
     0
176
     1
290
     0
176
     1
290
     0
176
     1
290
     0
176
     1
 90
       50
176
     1
 40
0.0
176
     1
 40
1.0
176
     1
 90
        0
176
     1
 62
    18
176
     1
 90
       50
176
     1
 90
        3
176
     1
 62
     5
420
      255
176
     1
290
     0
176
     1
 90
       50
176
     1
 90
       50
176
     1
 90
       50
176
     1
290
     0
176
     1
 90
       50
176
     1
 62
   256
176
     0
 40
1.0
176
     0
 90
        2
176
     1
  1
strokes_ogs.tif
176
     1
290
     0
176
     1
 40
1.0
176
     1
 40
1.0
176
     1
  0
VISUALSTYLE
  5
8D9
102
{ACAD_REACTORS
330
8C6
102
}
330
8C6
100
AcDbVisualStyle
  2
X-Ray
 70
    25
177
     3
291
     0
 70
    58
 90
        2
176
     1
 90
        2
176
     1
 90
        1
176
     1
 90
        1
176
     1
 40
0.5
176
     1
 40
30.0
176
     1
 62
     7
420
 16777215
176
     1
 90
        1
176
     1
 90
        0
176
     1
 62
     7
176
     1
 62
   257
176
     1
 90
        1
176
     1
 90
        1
176
     1
 40
1.0
176
     1
 90
        8
176
     1
 62
     7
176
     1
 40
1.0
176
     1
 90
        1
176
     1
 90
        6
176
     1
 90
        2
176
     1
 62
     7
176
     1
 90
        3
176
     1
 90
        0
176
     1
 90
        0
176
     1
290
     0
176
     1
 90
       13
176
     1
 40
0.0
176
     1
 90
        0
176
     1
290
     0
176
     1
290
     1
176
     1
290
     1
176
     1
290
     0
176
     1
290
     0
176
     1
290
     0
176
     1
290
     0
176
     1
290
     0
176
     1
290
     0
176
     1
 90
       50
176
     1
 40
0.0
176
     1
 40
1.0
176
     1
 90
        0
176
     1
 62
    18
176
     1
 90
       50
176
     1
 90
        3
176
     1
 62
     5
420
      255
176
     1
290
     0
176
     1
 90
       50
176
     1
 90
       50
176
     1
 90
       50
176
     1
290
     0
176
     1
 90
       50
176
     1
 62
   256
176
     0
 40
1.0
176
     0
 90
        2
176
     1
  1
strokes_ogs.tif
176
     1
290
     0
176
     1
 40
1.0
176
     1
 40
1.0
176
     1
  0
DICTIONARYVAR
  5
168B
102
{ACAD_REACTORS
330
9BC
102
}
330
9BC
100
DictionaryVariables
280
     0
  1
1:1
  0
DICTIONARYVAR
  5
1687
102
{ACAD_REACTORS
330
9BC
102
}
330
9BC
100
DictionaryVariables
280
     0
  1
STANDARD
  0
DICTIONARYVAR
  5
1686
102
{ACAD_REACTORS
330
9BC
102
}
330
9BC
100
DictionaryVariables
280
     0
  1
STANDARD
  0
DICTIONARYVAR
  5
1688
102
{ACAD_REACTORS
330
9BC
102
}
330
9BC
100
DictionaryVariables
280
     0
  1
Imperial24
  0
DICTIONARYVAR
  5
1689
102
{ACAD_REACTORS
330
9BC
102
}
330
9BC
100
DictionaryVariables
280
     0
  1
Imperial24
  0
DICTIONARYVAR
  5
185035
102
{ACAD_REACTORS
330
9BC
102
}
330
9BC
100
DictionaryVariables
280
     0
  1
1
  0
DICTIONARYVAR
  5
249D37
102
{ACAD_REACTORS
330
9BC
102
}
330
9BC
100
DictionaryVariables
280
     0
  1
2
  0
DICTIONARYVAR
  5
FB9E
102
{ACAD_REACTORS
330
9BC
102
}
330
9BC
100
DictionaryVariables
280
     0
  1
BYLAYER
  0
DICTIONARYVAR
  5
1A166A
102
{ACAD_REACTORS
330
9BC
102
}
330
9BC
100
DictionaryVariables
280
     0
  1
SUPPORT
  0
DICTIONARYVAR
  5
16B887
102
{ACAD_REACTORS
330
9BC
102
}
330
9BC
100
DictionaryVariables
280
     0
  1
ByLayer
  0
DICTIONARYVAR
  5
168D
102
{ACAD_REACTORS
330
9BC
102
}
330
9BC
100
DictionaryVariables
280
     0
  1
1
  0
DICTIONARYVAR
  5
168E
102
{ACAD_REACTORS
330
9BC
102
}
330
9BC
100
DictionaryVariables
280
     0
  1
15
  0
DICTIONARYVAR
  5
168C
102
{ACAD_REACTORS
330
9BC
102
}
330
9BC
100
DictionaryVariables
280
     0
  1
0
  0
DICTIONARYVAR
  5
168A
102
{ACAD_REACTORS
330
9BC
102
}
330
9BC
100
DictionaryVariables
280
     0
  1
0
  0
DICTIONARYVAR
  5
BCAE
102
{ACAD_REACTORS
330
9BC
102
}
330
9BC
100
DictionaryVariables
280
     0
  1
Middle
  0
XRECORD
  5
22A2E
102
{ACAD_REACTORS
330
22A2D
102
}
330
22A2D
100
AcDbXrecord
280
     1
330
0
330
0
330
0
330
0
330
0
330
0
330
0
330
0
330
0
330
0
330
0
330
0
330
0
330
0
330
0
330
0
330
0
330
0
330
0
330
0
330
0
330
0
330
0
330
0
330
0
330
0
330
0
330
0
330
0
330
0
330
0
330
0
330
0
330
0
330
0
330
0
330
0
330
0
330
0
330
0
330
0
330
0
330
0
330
0
330
0
330
0
330
0
330
0
330
0
330
0
330
0
330
0
330
0
330
0
330
0
330
0
330
0
330
0
330
0
330
0
330
0
330
0
330
0
330
0
330
0
330
0
330
0
330
0
330
0
330
0
330
0
330
0
330
0
330
0
330
0
330
0
330
0
330
0
330
0
330
0
330
0
330
0
330
0
330
0
330
0
330
0
330
0
330
0
330
0
330
0
330
0
330
0
330
0
330
0
330
0
330
0
330
0
330
0
330
0
330
0
330
0
330
0
330
0
330
0
330
0
330
0
330
0
330
0
330
0
330
0
330
0
330
0
330
0
330
0
330
0
330
0
330
0
330
0
330
0
330
0
330
0
330
0
330
0
330
0
330
0
330
0
330
0
330
0
330
0
330
0
330
0
330
0
330
0
330
0
330
0
330
0
330
0
330
0
330
0
330
0
330
0
330
0
330
0
330
0
330
0
330
0
330
0
330
0
330
0
330
0
330
0
330
0
330
0
330
0
330
0
330
0
330
0
330
0
330
0
330
0
330
0
330
0
330
0
330
0
330
0
330
0
330
0
330
0
330
0
330
0
330
0
330
0
330
0
330
0
330
0
330
0
330
0
330
0
330
0
330
0
330
0
330
0
330
0
330
0
330
0
330
0
330
0
330
0
330
0
330
0
330
0
330
0
330
0
330
0
330
0
330
0
330
0
330
0
330
0
330
0
330
0
330
0
330
0
330
0
330
0
330
0
330
0
330
0
  0
DICTIONARY
  5
26F58B
102
{ACAD_REACTORS
330
26F58A
102
}
330
26F58A
100
AcDbDictionary
281
     1
  0
DICTIONARY
  5
26F58F
102
{ACAD_REACTORS
330
26F58E
102
}
330
26F58E
100
AcDbDictionary
281
     1
  0
DICTIONARY
  5
26F594
102
{ACAD_REACTORS
330
26F593
102
}
330
26F593
100
AcDbDictionary
281
     1
  0
DICTIONARY
  5
26F599
102
{ACAD_REACTORS
330
26F598
102
}
330
26F598
100
AcDbDictionary
281
     1
  0
DICTIONARY
  5
26F59D
102
{ACAD_REACTORS
330
26F59C
102
}
330
26F59C
100
AcDbDictionary
281
     1
  0
DICTIONARY
  5
26F5A1
102
{ACAD_REACTORS
330
26F5A0
102
}
330
26F5A0
100
AcDbDictionary
281
     1
  0
DICTIONARY
  5
26F5A9
102
{ACAD_REACTORS
330
26F5A8
102
}
330
26F5A8
100
AcDbDictionary
281
     1
  0
DICTIONARY
  5
26F5B1
102
{ACAD_REACTORS
330
26F5B0
102
}
330
26F5B0
100
AcDbDictionary
281
     1
  0
DICTIONARY
  5
26F5B5
102
{ACAD_REACTORS
330
26F5B4
102
}
330
26F5B4
100
AcDbDictionary
281
     1
  0
DICTIONARY
  5
26F5B9
102
{ACAD_REACTORS
330
26F5B8
102
}
330
26F5B8
100
AcDbDictionary
281
     1
  0
DICTIONARY
  5
26F5BD
102
{ACAD_REACTORS
330
26F5BC
102
}
330
26F5BC
100
AcDbDictionary
281
     1
  0
DICTIONARY
  5
26F5C2
102
{ACAD_REACTORS
330
26F5C1
102
}
330
26F5C1
100
AcDbDictionary
281
     1
  0
DICTIONARY
  5
26F5C6
102
{ACAD_REACTORS
330
26F5C5
102
}
330
26F5C5
100
AcDbDictionary
281
     1
  0
DICTIONARY
  5
26F5CA
102
{ACAD_REACTORS
330
26F5C9
102
}
330
26F5C9
100
AcDbDictionary
281
     1
  0
DICTIONARY
  5
26F5CE
102
{ACAD_REACTORS
330
26F5CD
102
}
330
26F5CD
100
AcDbDictionary
281
     1
  0
DICTIONARY
  5
26F5D2
102
{ACAD_REACTORS
330
26F5D1
102
}
330
26F5D1
100
AcDbDictionary
281
     1
  0
DICTIONARY
  5
26F5D6
102
{ACAD_REACTORS
330
26F5D5
102
}
330
26F5D5
100
AcDbDictionary
281
     1
  0
DICTIONARY
  5
26F5DA
102
{ACAD_REACTORS
330
26F5D9
102
}
330
26F5D9
100
AcDbDictionary
281
     1
  0
DICTIONARY
  5
26F5DE
102
{ACAD_REACTORS
330
26F5DD
102
}
330
26F5DD
100
AcDbDictionary
281
     1
  0
DICTIONARY
  5
26F5F9
102
{ACAD_REACTORS
330
26F5F8
102
}
330
26F5F8
100
AcDbDictionary
281
     1
  0
DICTIONARY
  5
26F5FF
102
{ACAD_REACTORS
330
26F5FE
102
}
330
26F5FE
100
AcDbDictionary
281
     1
  0
DICTIONARY
  5
26F604
102
{ACAD_REACTORS
330
26F603
102
}
330
26F603
100
AcDbDictionary
281
     1
  0
DICTIONARY
  5
26F60D
102
{ACAD_REACTORS
330
26F60C
102
}
330
26F60C
100
AcDbDictionary
281
     1
  0
DICTIONARY
  5
26F614
102
{ACAD_REACTORS
330
26F613
102
}
330
26F613
100
AcDbDictionary
281
     1
  0
DICTIONARY
  5
26F61B
102
{ACAD_REACTORS
330
26F61A
102
}
330
26F61A
100
AcDbDictionary
281
     1
  0
DICTIONARY
  5
26F622
102
{ACAD_REACTORS
330
26F621
102
}
330
26F621
100
AcDbDictionary
281
     1
  0
DICTIONARY
  5
26F62A
102
{ACAD_REACTORS
330
26F629
102
}
330
26F629
100
AcDbDictionary
281
     1
  0
DICTIONARY
  5
26F631
102
{ACAD_REACTORS
330
26F630
102
}
330
26F630
100
AcDbDictionary
281
     1
  0
DICTIONARY
  5
26F637
102
{ACAD_REACTORS
330
26F636
102
}
330
26F636
100
AcDbDictionary
281
     1
  0
DICTIONARY
  5
26F63E
102
{ACAD_REACTORS
330
26F63D
102
}
330
26F63D
100
AcDbDictionary
281
     1
  0
DICTIONARY
  5
26F643
102
{ACAD_REACTORS
330
26F642
102
}
330
26F642
100
AcDbDictionary
281
     1
  0
DICTIONARY
  5
26F64C
102
{ACAD_REACTORS
330
26F64B
102
}
330
26F64B
100
AcDbDictionary
281
     1
  0
DICTIONARY
  5
26F653
102
{ACAD_REACTORS
330
26F652
102
}
330
26F652
100
AcDbDictionary
281
     1
  0
DICTIONARY
  5
26F65C
102
{ACAD_REACTORS
330
26F65B
102
}
330
26F65B
100
AcDbDictionary
281
     1
  0
DICTIONARY
  5
26F668
102
{ACAD_REACTORS
330
26F667
102
}
330
26F667
100
AcDbDictionary
281
     1
  0
DICTIONARY
  5
26F82C
102
{ACAD_REACTORS
330
26F82B
102
}
330
26F82B
100
AcDbDictionary
281
     1
  0
DICTIONARY
  5
26F9FA
102
{ACAD_REACTORS
330
26F9F9
102
}
330
26F9F9
100
AcDbDictionary
281
     1
  0
DICTIONARY
  5
26F9FE
102
{ACAD_REACTORS
330
26F9FD
102
}
330
26F9FD
100
AcDbDictionary
281
     1
  0
DICTIONARY
  5
26FA04
102
{ACAD_REACTORS
330
26FA03
102
}
330
26FA03
100
AcDbDictionary
281
     1
  0
DICTIONARY
  5
26FA09
102
{ACAD_REACTORS
330
26FA08
102
}
330
26FA08
100
AcDbDictionary
281
     1
  0
DICTIONARY
  5
249D38
330
20
100
AcDbDictionary
280
     1
281
     1
  3
AcPublish_PlotSettingsOverride
360
249D39
  0
DICTIONARY
  5
8B7
330
8B6
100
AcDbDictionary
280
     1
281
     1
  3
BUMPTILE
360
8B9
  3
DIFFUSETILE
360
8B8
  3
OPACITYTILE
360
8BC
  3
REFLECTIONTILE
360
8BB
  3
REFRACTIONTILE
360
8BD
  3
SPECULARTILE
360
8BA
  0
DICTIONARY
  5
8AF
330
8AE
100
AcDbDictionary
280
     1
281
     1
  3
BUMPTILE
360
8B1
  3
DIFFUSETILE
360
8B0
  3
OPACITYTILE
360
8B4
  3
REFLECTIONTILE
360
8B3
  3
REFRACTIONTILE
360
8B5
  3
SPECULARTILE
360
8B2
  0
DICTIONARY
  5
8BF
330
8BE
100
AcDbDictionary
280
     1
281
     1
  3
BUMPTILE
360
8C1
  3
DIFFUSETILE
360
8C0
  3
FBXASSET
360
41921
  3
OPACITYTILE
360
8C4
  3
REFLECTIONTILE
360
8C3
  3
REFRACTIONTILE
360
8C5
  3
SPECULARTILE
360
8C2
  0
DICTIONARY
  5
26EE58
330
8E1
100
AcDbDictionary
280
     1
281
     1
  3
ACAD_ROUNDTRIP_2008_TABLESTYLE_CELLSTYLEMAP
360
26FBDF
  0
PLOTSETTINGS
  5
249D39
102
{ACAD_REACTORS
330
249D38
102
}
330
249D38
100
AcDbPlotSettings
  1

  2
HP ColorLaserJet M253-M254
  4
ANSI_A_(8.50_x_11.00_Inches)
  6

 40
4.233333110809326
 41
4.23333740234375
 42
4.23333740234375
 43
4.23333740234375
 44
215.9000091552734
 45
279.3999938964844
 46
17.91184917924257
 47
0.0000000000000226
 48
1890.63659464598
 49
-573.9331600595034
140
2204.53433553356
141
-375.1097795312784
142
1.0
143
29.42791475508095
 70
 11444
 72
     0
 73
     1
 74
     4
  7
acadlt.ctb
 75
     0
147
0.0339813407889305
 76
     0
 77
     2
 78
   300
148
-48022.16950400786
149
14577.90226551139
1001
ACAD_PSEXT
1000
HP ColorLaserJet M253-M254
1000
HP ColorLaserJet M253-M254 PCL-6 (V4)
1000
USB001
1000

1070
     0
  0
XRECORD
  5
8B9
102
{ACAD_REACTORS
330
8B7
102
}
330
8B7
100
AcDbXrecord
280
     1
270
     1
271
     1
  0
XRECORD
  5
8B8
102
{ACAD_REACTORS
330
8B7
102
}
330
8B7
100
AcDbXrecord
280
     1
270
     1
271
     1
  0
XRECORD
  5
8BC
102
{ACAD_REACTORS
330
8B7
102
}
330
8B7
100
AcDbXrecord
280
     1
270
     1
271
     1
  0
XRECORD
  5
8BB
102
{ACAD_REACTORS
330
8B7
102
}
330
8B7
100
AcDbXrecord
280
     1
270
     1
271
     1
  0
XRECORD
  5
8BD
102
{ACAD_REACTORS
330
8B7
102
}
330
8B7
100
AcDbXrecord
280
     1
270
     1
271
     1
  0
XRECORD
  5
8BA
102
{ACAD_REACTORS
330
8B7
102
}
330
8B7
100
AcDbXrecord
280
     1
270
     1
271
     1
  0
XRECORD
  5
8B1
102
{ACAD_REACTORS
330
8AF
102
}
330
8AF
100
AcDbXrecord
280
     1
270
     1
271
     1
  0
XRECORD
  5
8B0
102
{ACAD_REACTORS
330
8AF
102
}
330
8AF
100
AcDbXrecord
280
     1
270
     1
271
     1
  0
XRECORD
  5
8B4
102
{ACAD_REACTORS
330
8AF
102
}
330
8AF
100
AcDbXrecord
280
     1
270
     1
271
     1
  0
XRECORD
  5
8B3
102
{ACAD_REACTORS
330
8AF
102
}
330
8AF
100
AcDbXrecord
280
     1
270
     1
271
     1
  0
XRECORD
  5
8B5
102
{ACAD_REACTORS
330
8AF
102
}
330
8AF
100
AcDbXrecord
280
     1
270
     1
271
     1
  0
XRECORD
  5
8B2
102
{ACAD_REACTORS
330
8AF
102
}
330
8AF
100
AcDbXrecord
280
     1
270
     1
271
     1
  0
XRECORD
  5
8C1
102
{ACAD_REACTORS
330
8BF
102
}
330
8BF
100
AcDbXrecord
280
     1
270
     1
271
     1
  0
XRECORD
  5
8C0
102
{ACAD_REACTORS
330
8BF
102
}
330
8BF
100
AcDbXrecord
280
     1
270
     1
271
     1
  0
XRECORD
  5
41921
102
{ACAD_REACTORS
330
8BF
102
}
330
8BF
100
AcDbXrecord
280
     1
 70
     1
 90
1959938040
 71
     1
  1
D3A7F0CA-245F-4254-AFA6-1AEB191BE395
311
504B030414000608080006886449135D3AB2D9000000200100004F00000042323141464634342D443242442D343743412D424438452D3746413933364232433445312F4173736574446174612F446566696E6974696F6E4974657261746F7250726F706572746965732E62696E454E3D4FC3400C3D18400C0CFC83AAFB711F
311
BD4015B5454D4F6582052696CABDB825D225A97289C4C8C8BF065B2DAAA5E7E7CF67FF08217E4F46A1B8207C93BF257EC606BB2ABC854FAC415C7125B65B88D7E7DE25859C7ADCC1107BDE7AA952C018A1C1764877E7D1510D3DC941BCE7A51BC27F21B1C2FE788CEFBF12F82566280FF913A484FD5CEDB65FAAC896DE4E96
311
53395D3B2D5D660B594CBC93CE7B9B152BB35A7BAF3A4CEDD0054CCA29BD39296F0ECDBE2A17B3BEAA71D4408DF371E8907E2AC70BABCD8334466AF76E1E73AD73633F668A27FF00504B0304140006080800068864496422203137010000300200004500000042323141464634342D443242442D343743412D424438452D37
311
46413933364232433445312F4173736574446174612F496E7374616E636550726F706572746965732E62696E7590BD4EC3400CC79D0609292EA80FD10186939AE4922A53BE8360242B4B9404CA40800A89352320010308040BBC01ACAC8CB002338FD085197C246DA1504BB67FFE9F7D77F201007CD64608127949718EF252
311
5EE4FDCD344E7BF956D22621D0DD6ED4F15DA67123625C33387323D764AA1B7AAAA57AA16E19B3E34131A2AB3C0835C36206E73AE3A6A6322FF202A676F58E6FFABEE58696781316D74E1F3F165EEC3A37482AC987B54D4C36B0BF7F48D472A02594CADACE90A6641AAC6C04531AC5133F3A65E2B2AADFEB8366554E44B1C3
311
F1C9E892892E80ECC1F9A3FD12FE1F15D78B7D0A1BD83314C5D6E6C9E3FD642FED31AF9F14599E89FF2A77202BF7CA1348CAB3F24AFC86CB20E10AAE828C31A6C419AE136F6041BC8D3BD0C05D3C243EC263D24FF08CF81C2F882FF18AF81A6F886F9BC917504B0304140006080800068864497D09B9F3790100005E060000
311
3D00000042323141464634342D443242442D343743412D424438452D3746413933364232433445312F536368656D61732F436F6D6D6F6E536368656D612E786D6CC595D16A83301486EFFB14E20B94B15B2DB42B6C42D9458BBB3F9AD32E2C2692448B6FBF18ADCBA22D0E847927497EBFF39FFFC468AB14EA53FE89056C56
311
817DA234D90735B0387C11452178B71A6E56D1DAACFCEC3A1E024AE2704B6AE03912B38667CAA9A682874159658CE6717806A6300C2402119C3571A86565DEAD7C27793C0C92272D29BF74AA2DD78166C9FEB6396090A181B2C4DD4A8BD49D9992D881C29EDDC7210369A2518216720F1AC6709EF84E0886C02DE01B2504C7
311
85CE50EE2C69D97BBD013EE11A2F28AD7E47FE8152CDF6F3D91ADA8B0CA269DFA765FB9326EF5098467A7D7E5C3E13791B2B3F029ECB694589B5A02FFED590FFF1434EBC8CD86085932F68F3A59B725CC2FDA87A9C8E5A0EA6714236234C604C5C8B8A695A32345415AA5BFD4B58E5201054B9A4E5E4F42DFCA92F6CAE4292
311
7F2CD606894F05D0EFDEBCC8393EDA03B382314FDA9D6989359D1C679BD7A787E3AB3FAB22E340D972B63B53E25CC22E707DE7FAB9C71BAD7FFD4FBE01504B030414000608080006886449317D3058AB040000AB1500003E00000042323141464634342D443242442D343743412D424438452D374641393336423243344531
311
2F536368656D61732F47656E65726963536368656D612E786D6CDD586D4FE33810FECEAFB0F27D4BE18ED5AD4491DA4570FD807A82E5B3E53A6EEB3B3B891CA7D0FBF537633B6ED27437A170D26A2B21F232F1BC3DCFCCD8D7D3B214F6896F84663767C4FDAE9FE7B764CBD424B917993092FBD7C9CDD9F539BC8A6233560A
311
2FF728B254980766419AA986388A4479BB2B82BC0E92AC2804332CE3C22D8E0251BA9244A693649A6EF17D0A8AC54A66D2CA3C4B48512D95E49364C554291262044BF34CED26893515DC3BE3C19CF23C7850FFDFAF367AD5CA29AD64542975A184169965A8C5A99FB71E3DE03BF5C8762758E0BF9D6BB61651775BE1703B16
311
F74F2758005FBD5BF35F466CA57839417BF8F26BAE72D36746C8FDC7E4FC791ED535723DCB7325984F32479BE87247F3E5DF82DB809F802DC59602A8E0EC26B31D59781924435823E6ADB9E6DA5387B29CA6C232A9CAB0AC476858F51918E457BE33B9260BBB1186D43C2A1D3E0F95DCA99C5987CDA60A595A47230FFDDF13
311
12143CB057725BBF449BDDE77D1623C51C87DA3198EAA504069005E7AA2A9188C7A230CFAC58831BC8DE868925432AD551B8F81C4D7C0A2F6ECE42FD21E47A9657595A9242188E945B8B48759971E3385ACA7FE1E945423454055DE9497219AF65096268E216447CC0357B0D5257A03ADC75E5BC43A83CC6E83C38141F1C4B
311
F392F17F568C0BCA2BA58E066F1624C857943816B86E6697952E28D3100C0025532A7FE17996014445CAB06E9793043C5DABBAE48D47975F0E7E31CC53BFCCBBA3FCE9623C1E0F8A7410F4811F16EA363A3D339A387201D1AC18108DC7490266028AEFEB8B597D3175B8090C99418C5D3A9CB698E46E327865F3CAD2BC605C
311
5AE80003F201E8ACCB87FBD833BACFC954AE5615B6B55E0DE8E3E8B78BABE867BC415FE34DCB5FE7E62087831D5462CFA22B96D630DBBBE5DA19B9C3573DC0F22CFC017B0762EA8DDC6DC7BA9BD4B5CA4BA09028A130F5861B630AB10E29BDDF7F3AACB0CA926A6805C7CBC39F72BD51F0678F57FD6345D5889582E652D84D
311
283810C260DB23BC823281530C76806F064A13B975A23D790A15FFDD89BAC47CBE85FA8755F67B1E7BB7A84BDC8E1E74156801DD08B844EDC887F5998148BDFCE39D11E8A215338EFE6FA1005166E93815EB61B8EDC405977055A08F21873ABF7CBCD2EFA4DAB4C0FD695F75165B618C4C05019803B21DCC3F08DCA8250C14
311
DD8E55031A468DFF09DDC19B21E8AE1DFFA5D05DFB2F613FF91AAADAC5E8AA45EB20D3D7700614B2D17858B6A1E6BFA9940DA054EDA885DD6FA92A9872F98EBE086C006F2434D4F6B8425F4C7E8A267C6C7C3638EFF3DCC07143495D1FA6387D0803D33FAD4F0BEABD437B53325370F8405EA4DD9CB87D6AE9362C95D5C059
311
605F53D17AD8C739F30715D552A815954A559A72B7F9B442C36687D9CAD443D6E72B1CB3EBF11185C8B7865077E4E84ECB0D2D2BA9E0700642590C80178C95400C3F3AFB0B1827FD456B94BC738BFA0DAC73BB6F846E1804AECBACB165DDFBFA04B121738C0D08B8E39EAEAFDDD6E8885430000C1F369BEF153A06D59FF68C
311
473F05837EECFD2F34AF3F5903DB5B7792A072CE54C634D0A3E7F0CF49D6DB7E00713CC67410F54BC66DDEA1063C823C41C3B47D9079A0A439DFE83C6EA31AA734F81051DE1A82AFCF5B87B3FF01504B03041400060808000688644979B77F2750010000C20300004500000042323141464634342D443242442D343743412D
311
424438452D3746413933364232433445312F536368656D61732F52656E6465724D6174657269616C536368656D612E786D6CAD93516BC23010C7DFFD14211F602A636FADA00E445036DAB95739D39B0DA489A451F1DBAFB9A4B5E2C660D8B7CBFDEF77C9DDBFC9B4AED1E5A2C40A2603465FB259BEB213A89467A80BB46B70
311
6825A8A0E29341326C149D7A063506F9DC5495D13D994F75BA4DB662B248F9B23A28AC503B70D2E805EA062E383B1C774A8A947F81AA91338B5018AD2E2977F6D8C4749FD03B5BFDC15C7BB8CAE0F250EADB227F28EFDDE249E2F99FCC7969A4401AA8A0B16FF3122C165B5A689C57CCD494E14CC10E9BAD7AA1D4FB669871
311
E18C2501F709EA78C36C2B69FAA31B0216B48D5E61BB95DF71B2B1D3C17B4ABB78C371C75CF672DE623F80DBC3B6513237CAD8FE0C3EA4765BE14F899FA57CF4F43C7EA160D10F66FD609AF2EB3D3C821138BCCFC3BA8633631482BE6BE9CC7EAF5A974607C7697B1E91626DC7CA9DDF02A1EA333851DE39E1EAF9A00DA5C9
311
F0E69FFD06504B030414000608080006886449FEA048F051000000570000004700000042323141464634342D443242442D343743412D424438452D3746413933364232433445312F4173736574446174612F41737365745461626C654F66436F6E74656E74732E62696E536160607031763477337076D435323175D3353132
311
35D175747334D33574747532B434747235B6341502AACB4D2C492DCA4CCC492C28484D2C4ACC4B4E050A82012F90744FCD03CA26072767A4E6260200504B030414000608080006886449F865834058000000680000004500000042323141464634342D443242442D343743412D424438452D3746413933364232433445312F
311
4173736574446174612F53747265616D56657273696F6E5461626C652E696E66558CBD0A80300C06F73E4B117FB66E451741D041DC5BF98480A492E4FDD18EAEC7DD4555D89EF28DF51A0B1BD8340C4DE7DD848B988C0ACF0649566493F2408C508DDEBB99D5129FF8F1AF8CF5B9503E20FAE5A16B5AF702504B0304140006
311
08080006886449F1791C5F340100009A0400003600000042323141464634342D443242442D343743412D424438452D3746413933364232433445312F4173736574446174612F636E782E786D6CCD94314FC3301085FF4AE43D765C214095E30AC1D209242A06B6AB7369AD3A76645F10FC7BEC3603A888A943D7F3BBF3F327
311
BF53ABCFC1551F18930DBE659237AC426F4267FDAE6513F5F53DAB565AC510E8878C551E066C592933AD76314CE35CEAB087C995AAB3FE30171F5242DAC0D6E173FF183CA1A7C42AE320A59625B3C701384C143A4C07DE0101973C620A53349827911D709E64220261C7F4A291B7B5947573B39177CBA659CAC5BB1245A9D5
311
360437EB6DBE2C86B132A75B996E9428C75A4DD1CE9AF216A6FFF2C8B7D62B91955A258A99C9DC415F63EE807174D6006574221842AAB3086150E224D64A1406BF483C616FBD2D2DEB6C0C28C4976C0F2359BC3A22FF79BD3C99B54F04DEE0F5F2387778790AAFC71FF4760AE43131D796937387DCFAFE022911C735924353
311
B68AFE06504B03041400060808000688644999E166A2080100004F0300003400000042323141464634342D443242442D343743412D424438452D3746413933364232433445312F536368656D61732F636E782E786D6CCD933B4F04211485FFCA847E786C8C9A0DC3161656366A6587CCDD5DB2C09DF030FAEF85916237B1D3
311
623B387C21E71C2E72F7E9DDF00131590C131194930182C1D986C3444ADE8FF764D8291911F3194686A03D4CA4C944C943C4B2746986BD2EAEA9CE8653171FD07B0C2FE6085E93C1389DD244D2BAA5BA649C219DE8ACB3A682464858A2817A43B61EFA0D2682CE3013B5E1E2761462E437AFE26ECBF9566CDE246BA492EF88
311
AEF3366488B80C06EB22543B5CB276AC6489B6332D0351E7DE686D43B24A289972AC1D74327F2D95D4CBE2ACD1B956C556F0875192B5A817811F2140B4E63A135F98FBB7C8CF1066884FF595A2D5EE3A93FFE6F16F05B075F6EB08B4AFA0BE01504B030414000608080006886449410A3D5871000000A40000002C00000042
311
323141464634342D443242442D343743412D424438452D3746413933364232433445312F636E782E786D6C55CC4D0E82301086E1AB34B31774E7A22D31F1069E60020334B633A63FC6E34B0909B07DDE2F9FEE7EC1AB2FC5E4840DDC9A2B28E25E06C7938192C7CB1D54677514C9871928C640062A83D55394F2D968A0118B
311
AFEA1DBF377CA444F98919176EAB9FEAAB9F2960DA5BBB1E2ED3FA6FFF504B030414000608080006886449CFDC83907F000000A300000007000000636E782E786D6C4D8CD10E822018465F85FDF754104BDB40072AEFE1121D13A191B41E3F685E74F56D67DF39BCFD6C0EBD4D7CD9E00590D30590F18F3059BF0848FB8C6B
311
406DC36308FBDF0D901F3723A06068F812437A1E6832F3985CA1CEFAF5808A12A93563B8A7AAC7ACEA24567D3DE04ACBFBF5A668C706928D7351F2FC7A794BBEF902504B03041400060808000688644916E99B5DA600000035010000130000005B436F6E74656E745F54797065735D2E786D6C9590410E82301045AFD2740F
311
4517C6180A0BF5065E60AC53688469D30E066F6F91AD9AB89CF9FFFD3F99BA9DC7413C3026E749CB4D59498164FCCD51A7E5C4B6D84BD136F5E5193089ECA5A465CF1C0E4A25D3E308A9F401292BD6C711388FB15301CC1D3A54DBAADA29E38991B8E0254336F5092D4C038BF39CD76B6FC6A538AEBEA54A4B08617006389F
311
A516557DE4AE8E7E70DE30729138228C5F021CD93F02D4FB0DCD0B504B0304140006080800068864493DEE336E64000000790000001B0000006175746F6465736B2D64657369676E2D7061636B6167652E786D6C35CBC10E83200C00D05F21DCA56CA76D41FC96062B120735B69A7DBE268BB7777961F8D5AF396893C2ADB7
311
0FE7ADA196782C2DF776D7A97B5933C430F15651E5469C55D70F80A4992A3ADC954792C525AE70A1E4D6AD9816CC044FEFDF01FE3FDE907802504B0304140006080800068864491DFF62D2F8000000960100003700000042323141464634342D443242442D343743412D424438452D3746413933364232433445312F417373
311
6574446174612F636F72652E786D6C8550CB6E833010FC15B477830D86D2C8384A42FEA0A7DE2CE3502BC1467E54FDFCDA814AEDA9A75DCDCECCEE0E3B7E2D8FE25339AFAD198094180A65A49DB4990788E1867A288E9C396BC32F1A14462C6A800C0367B3B371DD21694D5026A3C64E6A0785F72A40211FA919C0CB0FB588
311
52C49018FE5EAE42DEC5AC4A526E3CCE62D4D32ED55372D337AD1C70DAB5DD485E31BA5C1B8228AEAFA8BF608ACEA72B6D9B33EDDB7E6455167316F4F2B35D3A25829A80D79874881084E91B7939607C20F53BAB3293331F5CFA795F9ABF037ECA578F2208566DD33FAE719DFE778DDA84A6DE5D3785074ED291CF0167554E
311
29956784A9E644F937504B03041400060808000688644921B24EB7F7000000940100003500000042323141464634342D443242442D343743412D424438452D3746413933364232433445312F536368656D61732F636F72652E786D6C8550CB6E833010FC15B477830D86D2C8386A12BEA03DF56619875A0936F2A3EAE7D726
311
546A4F3DED6A76667677D8F16BB9179FCA796DCD00A4C4502823EDA4CD3C400C57D44371E4CC591B7ED1A0306251036418389B9D8DEB0E496B8232193576523B28BC57010A794FCD005E7EA845942286C4F0B77215F226665592F2C1E32C463DED523D25377DD5CA01A75DDB5DC83346E7B12188E27A44FD1953747A1969DB
311
9C68DFF61756653167412F3FDBA55322A809788D4987084198BE91A703C60752BFB32A3339F3C1A59FF7A5F93BE0AFDB9D9E558FD91FCFB84EFF7B466D4253EF9E0F85074ED289DB80B32A6794CA1660AA394FFE0D504B030414000608080006886449525BFE2703010000D70100002D00000042323141464634342D443242
311
442D343743412D424438452D3746413933364232433445312F636F72652E786D6C9551416E833010FC0ADABB013B34A491710421BCA0A7DE5CBCA156828DB0A9FAFCDA814AEDAD3DAD359ED9DD99E5A7CFF19E7CE0ECB43515D03487044D6F953643058BBF92032427C1676BFD0F1A24468E58418441F061B6CBB441BD351E
311
4D448D55B881D239F490F4F7F0A8C0F5EF38CA542E3E30DC2D9D647F9303A6345D79827B3D7E4BFB19A5470582E5744F282579F142CB639E1F297BE559640ABE68E3776C1B86E31BAAC44E3E5802F1C4B3F537B016AD368E5661477DD538836818ADBBAE2848CB9A9614E5B9264D7BB890B2AB9F77FB869D8B0B0D4D825870
311
E7E790CCD62466F057F92AFCE56C99D43F9DAD0A0722EEF3B02C7816630EE5718350E349C417504B03041400060808000688644999A6FC4C06010000B201000008000000636F72652E786D6C8D50C16E842014FC15F2EE28285ABB4136DD5DFFA0A7DEA8B096AC8211DCB47F5F586DD2DE7A7A6466DE9B61F8F1731AD15D2F
311
DE38DB02CD08206D7BA78C1D5A58C31537808E822FCE855F3240564EBA850483E0C3E2D679877A6783B609B54EE91D94DEEB00A81FE3A305DF7FE84966720D51E16FD92CFB9B1C7446B34D277830D3CF6ABF6819B40251105A634A3161AFF4E940C881166F3C4F4AC1D7D5A8DDCAA8E86EAE462F20585DD517FA4CF0B92B29
311
66A4E87073260C9F5E3A569527D654CD85E76959701F96F8E7FD48CC199097F7E4CBF38D12FCDDB97117C4500A393B7E81203C4FC49FD0EBACFE11DAD85016FBC16DC383A031D08388C6A9C1381EF5C699DA16DF504B0102140014000608080006886449135D3AB2D9000000200100004F0000000000000000000000000000
311
00000042323141464634342D443242442D343743412D424438452D3746413933364232433445312F4173736574446174612F446566696E6974696F6E4974657261746F7250726F706572746965732E62696E504B01021400140006080800068864496422203137010000300200004500000000000000000000000000460100
311
0042323141464634342D443242442D343743412D424438452D3746413933364232433445312F4173736574446174612F496E7374616E636550726F706572746965732E62696E504B01021400140006080800068864497D09B9F3790100005E0600003D00000000000000000000000000E002000042323141464634342D4432
311
42442D343743412D424438452D3746413933364232433445312F536368656D61732F436F6D6D6F6E536368656D612E786D6C504B0102140014000608080006886449317D3058AB040000AB1500003E00000000000000000000000000B404000042323141464634342D443242442D343743412D424438452D37464139333642
311
32433445312F536368656D61732F47656E65726963536368656D612E786D6C504B010214001400060808000688644979B77F2750010000C20300004500000000000000000000000000BB09000042323141464634342D443242442D343743412D424438452D3746413933364232433445312F536368656D61732F52656E6465
311
724D6174657269616C536368656D612E786D6C504B0102140014000608080006886449FEA048F0510000005700000047000000000000000000000000006E0B000042323141464634342D443242442D343743412D424438452D3746413933364232433445312F4173736574446174612F41737365745461626C654F66436F6E
311
74656E74732E62696E504B0102140014000608080006886449F865834058000000680000004500000000000000000000000000240C000042323141464634342D443242442D343743412D424438452D3746413933364232433445312F4173736574446174612F53747265616D56657273696F6E5461626C652E696E66504B01
311
02140014000608080006886449F1791C5F340100009A0400003600000000000000000000000000DF0C000042323141464634342D443242442D343743412D424438452D3746413933364232433445312F4173736574446174612F636E782E786D6C504B010214001400060808000688644999E166A2080100004F0300003400
311
000000000000000000000000670E000042323141464634342D443242442D343743412D424438452D3746413933364232433445312F536368656D61732F636E782E786D6C504B0102140014000608080006886449410A3D5871000000A40000002C00000000000000000000000000C10F000042323141464634342D44324244
311
2D343743412D424438452D3746413933364232433445312F636E782E786D6C504B0102140014000608080006886449CFDC83907F000000A300000007000000000000000000000000007C100000636E782E786D6C504B010214001400060808000688644916E99B5DA600000035010000130000000000000000000000000020
311
1100005B436F6E74656E745F54797065735D2E786D6C504B01021400140006080800068864493DEE336E64000000790000001B00000000000000000000000000F71100006175746F6465736B2D64657369676E2D7061636B6167652E786D6C504B01021400140006080800068864491DFF62D2F80000009601000037000000
311
000000000000000000009412000042323141464634342D443242442D343743412D424438452D3746413933364232433445312F4173736574446174612F636F72652E786D6C504B010214001400060808000688644921B24EB7F7000000940100003500000000000000000000000000E113000042323141464634342D443242
311
442D343743412D424438452D3746413933364232433445312F536368656D61732F636F72652E786D6C504B0102140014000608080006886449525BFE2703010000D70100002D000000000000000000000000002B15000042323141464634342D443242442D343743412D424438452D3746413933364232433445312F636F72
311
652E786D6C504B010214001400060808000688644999A6FC4C06010000B2010000080000000000000000000000000079160000636F72652E786D6C504B050600000000110011005A060000A51700000000
310
504B030414000608080006886449000000000000000000000000370000006662782F37463846373337322D324239462D343132452D414444372D4343433046383146443743432F617474726962757465732E62696E504B030414000608080006886449000000000000000000000000350000006662782F3746384637333732
310
2D324239462D343132452D414444372D4343433046383146443743432F76657274696365732E62696E504B030414000608080006886449F270F1330600000004000000360000006662782F37463846373337322D324239462D343132452D414444372D4343433046383146443743432F747269616E676C65732E62696E6366
310
60600000504B03041400060808000688644951464CB48900000043010000360000006662782F37463846373337322D324239462D343132452D414444372D4343433046383146443743432F6469726563746F72792E786D6C9D8F310EC2300C45AF127987122606C71DD918B841D4B851A43646695A717C52A85029031293A5
310
A76FBF6FACEF7DA7264E43906840EF0FA03836E242F406C6DCEE4EA06AC22492573150D1F66C60C640E8938CB705396EEDD86DE9B5042FE27813D640EA63BB001C722AF6E55CB61E4863F58284D5D3F53DD715CE1C3985E63FD7F1B7EBDD617E9F1E504B030414000608080006886449B5132CB742070000201C0000340000
310
006662782F37463846373337322D324239462D343132452D414444372D4343433046383146443743432F6F626A656374732E786D6CDD59596FDB3810FE2B82F665F7419725A771E1B8F011074691B6A8D1C5BE09B44C3BDC5007282971F6D7EF90226551916DA507B05807B0158A1ACE7C738FC61F0E31359E30CB499ADC98
310
9EED9A064EA2744B92FD8D59163BEBDA343E4C8C314BD3A2B1CF341214E31B932F9B93F19EA5652697B678874ADA5E5DCEFE32F20827D834228AF2FCC6CCA3071C231B9545BAC5F9A3BD4505B2F7BB83EDD9D5469DEC9EA1ECA1755486184E0A6015D613A02239F0F47F4124673276F8066D9BDF6FDBE0CC364708AE334A92
310
BC4049F48AABD67183135CB58EF3BD60713B188EAC6110F8567035F0ACD972B6B0BC77BE3BBF9ACF47D3DB91694CC69B34A5B502329C6C418B2FE6C41B3BFC4E2DBE44A18BEF284D121C4934BB366CB1A44B70DEC64403D613A2351452C9DA58F07B0A7F625B2F50349634B49570EAB769BDE9E66F0021EF63A52CC7DCCAF3
310
8281AE25F6953FB863A75AD5F4427223460566045183920D430C14045B2B056964B8B7705206C74C6851D16BF20A867DD997BAB8DC959472FF3527C2D342F0475CE48233F20F6647EE9BA7014F206D4992E25A0A5BBC6440623476C46275CF1FC89B1590C68EA23D580B88C937F983165E731E0B560B73F271B939AC797CE8
310
3E3C63698659C12D4F38B3F43BA5C1866981F1F500A5C255D7DD1195AF00FD2740BEE6C51883E61839048740C9CE5092EF521683760CD7B05CF8720D7EF9EA6AECD40F4F0C438B95A73005B7FD49986A62686737209D8C9FC0E853E64BE1D611A260D3F724E17E0E8662D0149620DEEF360773B282600A8BF014A2203DFC8D
310
1D7E69C04F4507E24D4B435DE1B787A294C3B4FDECA8AB3BB01946A25A559A8CA7F01DFE147CA78BF5C775C97628C2F7D2B117784712524032ED6648035D73F96FAB4FC223EF68BA41F4F8B4B6298263F6298F1B1D6A594BB518422FC0094FC39566C4CA3D016FA71425382D73B9DE15A7A294A62CDCBC84950B779EF5A7B2
310
81EA3069009DB10C927BC448C6313127525B7520B41B82828521262D705F6935DC947116A2382D131E6A5F9B629B0F8833DC1281AAA0A60C5B79AD22BB25BB5D9943F0EA2439D78094FEAC0857161E401CEBE297E11D439044D324249083C1593A4FD00EA8C13BCF738EE92E24949671B82314F24818A3EC04FD9E123433D7
310
237E794ED9B693A06E59CA27950D71C025B00A2495ADAA982F75CAF013E165A6C8672A1B683B641D6A4EFC13E982678A0E4095315686EF4FDF2DDDF9D41A04C3A5150C8681355D4EAF2C6F7A3BF346DEECD61F81FB4B2B11081CA35533DF812A7999A3F95FF150C69B04110A373805B4CDDE7F10D9F3C681D0E8CC86D3C5C0
310
9F5E5BD7CBC0B582E16066CDFC4560058BC560389B7BF3E562E1309CA7258B70EE048E1B2A93CC92FD29AEEA58CAB316C80FDF1252286B2E273BA5AFB630FFE318DACE099A12FFAB41B48E5D1D0561DF20CA1F6D8750143DF214154650F575BA4F2B88B6F9E88A736F8CCBAEEDBBE2E379A3813B1A5C8FAE6A633F1BA8C539
310
3F1CE7BA2488A0EF2C8B30CD50448AEE84DAC2A5679C7E536EB17D6F68003AF5777DC8F93C230F09498CF638DC21DE257404C64B1274E6B03D4DF39C2438175DDEABEAAF45D3B58FD154AAB2C308491EC6B840DF637FA26D68D934C4661A423F5AF089C0C5AAA03668D9819CA2C8BB5F48DC42FE9730477146AB4EF71206DE
310
4059B3EA71BA2C8E33CD8F78027B0B5111BA5B2C061797A8D7ECABFAA0536B6DEAA3EF267F021E55D7FC4278D411FD4B277BE88DF8E71A82CAD5D0F3DF29455CC24A1D55F03E8E96D079462FE13326FB875E85663F9D344AB6AAA82E700C6D2C2A4AD6CB5FAF86EEAB83645C683944E3A4371687A27F531D1CA0271AB853E5
310
6DE318A843490273AE5E82BC92A2D384852EC44C8F8FAEDEE0D76795DDA4FAC3F1F29757CC4DE78BA1D0EB8343A08C5E461FADA6EEACBAB57A287F46450481742D7EAD1978C4166F8F8D9946AEAB4457F5E9A5EA79C5036A0C135BC4E3EC3DBFA05F11A81ABAE7DCB9AB8A36A75A5FF1C466C370FAC887C6B44EEBF3DDBA45
310
05567A3FFD8563849F5B14E4EA9C77C367487D5B1D7BFE160529D1B7D599C7FF131D855260A3B38069709E52024379BC35F63885EC0D63871EDD068B712EB2F2B14B516F047A3CFD54CD540BB4A1AAC7891E100CA6A9ECC5CA0886A290316F4CB96EFC0663503E8914C329FB11DA3019C34CA364E4C6048B2D08745BF606C6
310
59627828A8B7C695E0D828D9F37C5F3D55FF7F7CEC55F755EFE9838B944C7326286C33F19E00AABEEAC664FCFDA22B760C54C0E5A62C6A618E0B47692408EA8540251C4CFD1E25BC072828CECBE5D9628FD690F69ACC9FB5838AAA5520B617E3F5864D4E175F1C3E195F7D36325AEEB93ACF75BF1A258B77DDB4ACA6506330
310
0C296686780D397FEF7C6129BC628A8D250123307E3F5C5FFDE1CCD3384E936AC999CA1755C6FA015E3B6D1D35F2CB9D81EB058E9802C8B17EB84139B6D1367F8405502D237C365A41AC19401D4D1B06A034C275018F69FB570B43D64610F395C534C32E8747CCF40D7024FE2E87BB4D7343630009BE005C899BC70BB53076
310
180CC127FF02504B0304140006080800068864499F34E6223D01000046050000300000006662782F37463846373337322D324239462D343132452D414444372D4343433046383146443743432F636E782E786D6CCD94C14A033110865F25E4BE9B4D1195924DC1834FE041BC65B3D3356D36599289D8B737A9DBAA48C543A1
310
BD85C93FF07F333F2356EFA3256F10A2F1AEA5BC6E2801A77D6FDCD0D284EBEA9E929514C17BFC26A3C4A9115A5ACA548A21F834CDA51ED62AD952B5C66DE7A2420CA64B0891126D558C2D8DFA154655AB84BE87B8AD7B85AAE67580E853D090FBD18C30F7EB000AA1A772D1F0DB8AF3AAB979E277CBA659F2C58B60452945
310
E7BD9DF5C621043F11EDF3C365338D60E55B8A14CCAC2904547E39AB3BE304CBFF52C4ECD60DB30E7753D14D93355A611E13F31A01AB2C02350AF629968215DE1FD48F0FCF0707A4370134FAB0BBD000F8A9011C8DD53909FFE3DF0BFFC6F6DD26E35E6ADB2761675B67433DA435E6B8FEDE7F4E917283BDBED01F8D9D3FF3
310
F994A0D1D7877CF0752662B63F7979E9E502CA0F504B030414000608080006886449E828EE517D000000A30000000B0000006662782F636E782E786D6C4D8CD10AC22018465F45FE7B6B5AA0813A4AF33D467343723A6C468F9FC62EBAFAE0F09D23FACF12D0DBE5974F51023974805C7CA4D1C75942D926CC01F54AE494B6
310
BF1BA0382C4E42C3A0C49C53597734BA6928A1D1E0E37387CC72CB4E8C627ABB587C26F48EAFC630ACB5EE2C27D630ADAB716C4A9D5FAF6ECBAB2F504B030414000608080006886449A6D797065F0000008200000007000000636E782E786D6C4DCB3B0E80201045D1AD90E9FD7516806B51190811670C8A61F982B1B0BAC9
310
C97B72CA7B1037C6D3332918DA1E04D2CAC69353902EDB8C20262D23F3F59B81A079470595414B17391D1F19B4730A5583A7ED43BBE4025D9592775E5ADFFA01504B0304140006080800068864494FEB6A7CA0000000F4000000130000005B436F6E74656E745F54797065735D2E786D6C7D8F4B0EC2300C44AF1279DFA6B0
310
400835ED02B8011730C16D239A8F121795DB93D02D6269CFBC19BBED573B8B17C564BC53B0AB1B10E4B47F18372A5878A88E20FAAEBDBD032591BD2E299898C349CAA427B2986A1FC86565F0D122E7318E32A07EE24872DF3407A9BD63725C71C980AEBDD080CBCCE2BAE6F5D69B7110E7CD57AA146008B3D1C8F92C5954F9
310
93BB1BF787F39A89ABC491D09600F9FDA2FB00504B0304140006080800068864493DEE336E64000000790000001B0000006175746F6465736B2D64657369676E2D7061636B6167652E786D6C35CBC10E83200C00D05F21DCA56CA76D41FC96062B120735B69A7DBE268BB7777961F8D5AF396893C2ADB70FE7ADA196782C2D
310
F776D7A97B5933C430F15651E5469C55D70F80A4992A3ADC954792C525AE70A1E4D6AD9816CC044FEFDF01FE3FDE907802504B030414000608080006886449B63C1038F7000000960100003B0000006662782F37463846373337322D324239462D343132452D414444372D4343433046383146443743432F7265736F757263
310
65732F636F72652E786D6C8550496EC3300CFC8AC1BB6CCB3B025901DCE4073DF526C88C2324960C2D459F5F297681F6D41389E1CC901C76FE5A9FD9275AA78C1E81E62564A8A599955E4608FE4606C8CE9C5963FC2F1A645AAC38428281B3C59AB01D9034DAA34EA836331EA0700E3D64F2199B119CBCE32A72117C64B847
310
BE09F9100BE634DF799C85A0E643AAE6E8A66E0A2DF0A96DDBAA992EA4ABA69A3403EDC9707DAB4877696ADA5FEBA96D7A562431675EAD3FDBA545E171065E95B4239492B279A7FDA92C4FB4FA60456272E6BC8D3F1F4BD377C02D3A13AC44C78A7DFAC7356CF3FFAE41695F5787EBAE70C0693CF235E0AC4829C5F28A30D6
310
9428FF06504B0304140006080800068864496C003093F2000000B1010000310000006662782F37463846373337322D324239462D343132452D414444372D4343433046383146443743432F636F72652E786D6C8D50CB6EC32010FC156BEFD840A2E24698A8B5EB2FE8A93784898B1283C5A3EAE71762576A6F392D9A9D6166
310
879FBF975BF5A57D30CE76406A0C95B6CA4DC6CE1DA478412D5467C1BD73F10F0D2A2B17DD418141F0D9BBB4EE9072366A5B50EB26BD8332041DA152B7FCE820A84FBDC85AA69819E15AAF525DE5AC6B526F3CC1A3597EA5CA6B19F5048262F2840841F8F84ED809E313A11FBC294CC15332D36E65A6EC6E2E467B106C6C47
310
766014D1D7E7111D097D432FC3C050DFF7786CC938B0BEE74D110B1EA2CF37EF9F94EB1E956FC27F99D33A3D90D9D878A0BBE1A6082048CE735F08DE9402F3B8B79B67295BFC00504B03041400060808000688644926F54B9F53010000DD0200000C0000006662782F636F72652E786D6C8D52DB8E832014FC15C33B2A5E6A
310
D3204DDCF60FF669DF28524BAA60104C3F7FC14B5C1FB6BB314132E79C993313F0F9D5B5C1C8F520942C010A631070C9542D6453026BEEF0088233C15A29F3A30D049276BC041E0604375AD97E819892864B8F4A55F305A4C3C00D0858EB2E2518D8837734A4D6B88EE119F6943D69C34314CE7D045B2BEA6554D48E4DDC05
310
D78054799E2759758187A44A617644053C5E3F1278B864292AAE699567058EFC30C14674AB3AD39C1A5E0392C4E800118271F6898A531C9F50F28523DF49F060B4F3BC887A7780DC6F2F1CCDF88ECFF6F5DF7C564893260BDF3C310082DC7A5381E0C8E7E37E5378FB0C9DB0CBCFD05BBB5A783A68E4CC289DB94AADEC561A
310
696BB9A38E83E9C3D15C75CC13C16F3CC91B9EF71C2E282A1BB71A35EE7AB3C6ABEF77EAB986A3790552E98EB6DB72F38ADBB909ED2CADE34CB54AFF677AB5BA8619F98749BE01504B0304140006080800068864490AA4200705010000B201000008000000636F72652E786D6C8D50CB6EC32010FC15B4776CE3B7224C2437
310
F9839E7AA386B828365806A2F6EF0B3195DA5B4F8B66667786A1E7CF75410FB95B65F400242B00493D19A1F43C807737DC033A33BA1BE37EC90069BECA01220C8CCEBBF15B8226A39DD411D546C804726BA503342DE131809D3EE4CA33EE5D50D87BB6F1E9CE679991ECD031EAD4FAB33AED923B29809505693121B8A85F49
310
772A8A1329DF681E958C7AAF44B25222B8AB9B923BB0B1699AB21E2FB82DC70AD73DE9707F7D29717BA92BD25DABB1A93B9AC76546ADDBC39FD39190D321CB1FD197E607C5E8BB314B1284500219BD7C012B681E893FA1FD26FE115A695795E9E0B161819110E84904E3D86018CF7AC38C6DB36F504B010214001400060808
310
00068864490000000000000000000000003700000000000000000000000000000000006662782F37463846373337322D324239462D343132452D414444372D4343433046383146443743432F617474726962757465732E62696E504B0102140014000608080006886449000000000000000000000000350000000000000000
310
0000000000550000006662782F37463846373337322D324239462D343132452D414444372D4343433046383146443743432F76657274696365732E62696E504B0102140014000608080006886449F270F13306000000040000003600000000000000000000000000A80000006662782F37463846373337322D324239462D34
310
3132452D414444372D4343433046383146443743432F747269616E676C65732E62696E504B010214001400060808000688644951464CB489000000430100003600000000000000000000000000020100006662782F37463846373337322D324239462D343132452D414444372D4343433046383146443743432F6469726563
310
746F72792E786D6C504B0102140014000608080006886449B5132CB742070000201C00003400000000000000000000000000DF0100006662782F37463846373337322D324239462D343132452D414444372D4343433046383146443743432F6F626A656374732E786D6C504B01021400140006080800068864499F34E6223D
310
010000460500003000000000000000000000000000730900006662782F37463846373337322D324239462D343132452D414444372D4343433046383146443743432F636E782E786D6C504B0102140014000608080006886449E828EE517D000000A30000000B00000000000000000000000000FE0A00006662782F636E782E
310
786D6C504B0102140014000608080006886449A6D797065F000000820000000700000000000000000000000000A40B0000636E782E786D6C504B01021400140006080800068864494FEB6A7CA0000000F40000001300000000000000000000000000280C00005B436F6E74656E745F54797065735D2E786D6C504B01021400
310
140006080800068864493DEE336E64000000790000001B00000000000000000000000000F90C00006175746F6465736B2D64657369676E2D7061636B6167652E786D6C504B0102140014000608080006886449B63C1038F7000000960100003B00000000000000000000000000960D00006662782F37463846373337322D32
310
4239462D343132452D414444372D4343433046383146443743432F7265736F75726365732F636F72652E786D6C504B01021400140006080800068864496C003093F2000000B10100003100000000000000000000000000E60E00006662782F37463846373337322D324239462D343132452D414444372D4343433046383146
310
443743432F636F72652E786D6C504B010214001400060808000688644926F54B9F53010000DD0200000C00000000000000000000000000271000006662782F636F72652E786D6C504B01021400140006080800068864490AA4200705010000B20100000800000000000000000000000000A4110000636F72652E786D6C504B
310
0506000000000E000E0080040000CF1200000000
  0
XRECORD
  5
8C4
102
{ACAD_REACTORS
330
8BF
102
}
330
8BF
100
AcDbXrecord
280
     1
270
     1
271
     1
  0
XRECORD
  5
8C3
102
{ACAD_REACTORS
330
8BF
102
}
330
8BF
100
AcDbXrecord
280
     1
270
     1
271
     1
  0
XRECORD
  5
8C5
102
{ACAD_REACTORS
330
8BF
102
}
330
8BF
100
AcDbXrecord
280
     1
270
     1
271
     1
  0
XRECORD
  5
8C2
102
{ACAD_REACTORS
330
8BF
102
}
330
8BF
100
AcDbXrecord
280
     1
270
     1
271
     1
  0
CELLSTYLEMAP
  5
26FBDF
102
{ACAD_REACTORS
330
26EE58
102
}
330
26EE58
100
AcDbCellStyleMap
 90
        3
300
CELLSTYLE
  1
TABLEFORMAT_BEGIN
 90
        5
170
     1
 91
        0
 92
    32768
 62
   257
 93
        1
300
CONTENTFORMAT
  1
CONTENTFORMAT_BEGIN
 90
        0
 91
        0
 92
      512
 93
        0
300

 40
0.0
140
1.0
 94
        5
 62
     0
340
17
144
1.25
309
CONTENTFORMAT_END
171
     1
301
MARGIN
  1
CELLMARGIN_BEGIN
 40
0.06
 40
0.06
 40
0.06
 40
0.06
 40
0.18
 40
0.18
309
CELLMARGIN_END
 94
        6
 95
        1
302
GRIDFORMAT
  1
GRIDFORMAT_BEGIN
 90
        0
 91
        1
 62
     0
 92
       -2
340
0
 93
        0
 40
0.045
309
GRIDFORMAT_END
 95
        2
302
GRIDFORMAT
  1
GRIDFORMAT_BEGIN
 90
        0
 91
        1
 62
     0
 92
       -2
340
0
 93
        0
 40
0.045
309
GRIDFORMAT_END
 95
        4
302
GRIDFORMAT
  1
GRIDFORMAT_BEGIN
 90
        0
 91
        1
 62
     0
 92
       -2
340
0
 93
        0
 40
0.045
309
GRIDFORMAT_END
 95
        8
302
GRIDFORMAT
  1
GRIDFORMAT_BEGIN
 90
        0
 91
        1
 62
     0
 92
       -2
340
0
 93
        0
 40
0.045
309
GRIDFORMAT_END
 95
       16
302
GRIDFORMAT
  1
GRIDFORMAT_BEGIN
 90
        0
 91
        1
 62
     0
 92
       -2
340
0
 93
        0
 40
0.045
309
GRIDFORMAT_END
 95
       32
302
GRIDFORMAT
  1
GRIDFORMAT_BEGIN
 90
        0
 91
        1
 62
     0
 92
       -2
340
0
 93
        0
 40
0.045
309
GRIDFORMAT_END
309
TABLEFORMAT_END
  1
CELLSTYLE_BEGIN
 90
        1
 91
        1
300
_TITLE
309
CELLSTYLE_END
300
CELLSTYLE
  1
TABLEFORMAT_BEGIN
 90
        5
170
     1
 91
        0
 92
        0
 62
   257
 93
        1
300
CONTENTFORMAT
  1
CONTENTFORMAT_BEGIN
 90
        0
 91
        0
 92
      512
 93
        0
300

 40
0.0
140
1.0
 94
        5
 62
     0
340
17
144
1.25
309
CONTENTFORMAT_END
171
     1
301
MARGIN
  1
CELLMARGIN_BEGIN
 40
0.06
 40
0.06
 40
0.06
 40
0.06
 40
0.18
 40
0.18
309
CELLMARGIN_END
 94
        6
 95
        1
302
GRIDFORMAT
  1
GRIDFORMAT_BEGIN
 90
        0
 91
        1
 62
     0
 92
       -2
340
0
 93
        0
 40
0.045
309
GRIDFORMAT_END
 95
        2
302
GRIDFORMAT
  1
GRIDFORMAT_BEGIN
 90
        0
 91
        1
 62
     0
 92
       -2
340
0
 93
        0
 40
0.045
309
GRIDFORMAT_END
 95
        4
302
GRIDFORMAT
  1
GRIDFORMAT_BEGIN
 90
        0
 91
        1
 62
     0
 92
       -2
340
0
 93
        0
 40
0.045
309
GRIDFORMAT_END
 95
        8
302
GRIDFORMAT
  1
GRIDFORMAT_BEGIN
 90
        0
 91
        1
 62
     0
 92
       -2
340
0
 93
        0
 40
0.045
309
GRIDFORMAT_END
 95
       16
302
GRIDFORMAT
  1
GRIDFORMAT_BEGIN
 90
        0
 91
        1
 62
     0
 92
       -2
340
0
 93
        0
 40
0.045
309
GRIDFORMAT_END
 95
       32
302
GRIDFORMAT
  1
GRIDFORMAT_BEGIN
 90
        0
 91
        1
 62
     0
 92
       -2
340
0
 93
        0
 40
0.045
309
GRIDFORMAT_END
309
TABLEFORMAT_END
  1
CELLSTYLE_BEGIN
 90
        2
 91
        1
300
_HEADER
309
CELLSTYLE_END
300
CELLSTYLE
  1
TABLEFORMAT_BEGIN
 90
        5
170
     1
 91
        0
 92
        0
 62
   257
 93
        1
300
CONTENTFORMAT
  1
CONTENTFORMAT_BEGIN
 90
        0
 91
        0
 92
      512
 93
        0
300

 40
0.0
140
1.0
 94
        2
 62
     0
340
17
144
1.25
309
CONTENTFORMAT_END
171
     1
301
MARGIN
  1
CELLMARGIN_BEGIN
 40
0.06
 40
0.06
 40
0.06
 40
0.06
 40
0.18
 40
0.18
309
CELLMARGIN_END
 94
        6
 95
        1
302
GRIDFORMAT
  1
GRIDFORMAT_BEGIN
 90
        0
 91
        1
 62
     0
 92
       -2
340
0
 93
        0
 40
0.045
309
GRIDFORMAT_END
 95
        2
302
GRIDFORMAT
  1
GRIDFORMAT_BEGIN
 90
        0
 91
        1
 62
     0
 92
       -2
340
0
 93
        0
 40
0.045
309
GRIDFORMAT_END
 95
        4
302
GRIDFORMAT
  1
GRIDFORMAT_BEGIN
 90
        0
 91
        1
 62
     0
 92
       -2
340
0
 93
        0
 40
0.045
309
GRIDFORMAT_END
 95
        8
302
GRIDFORMAT
  1
GRIDFORMAT_BEGIN
 90
        0
 91
        1
 62
     0
 92
       -2
340
0
 93
        0
 40
0.045
309
GRIDFORMAT_END
 95
       16
302
GRIDFORMAT
  1
GRIDFORMAT_BEGIN
 90
        0
 91
        1
 62
     0
 92
       -2
340
0
 93
        0
 40
0.045
309
GRIDFORMAT_END
 95
       32
302
GRIDFORMAT
  1
GRIDFORMAT_BEGIN
 90
        0
 91
        1
 62
     0
 92
       -2
340
0
 93
        0
 40
0.045
309
GRIDFORMAT_END
309
TABLEFORMAT_END
  1
CELLSTYLE_BEGIN
 90
        3
 91
        2
300
_DATA
309
CELLSTYLE_END
  0
ENDSEC
  0
SECTION
  2
ACDSDATA
 70
     2
 71
     8
  0
ACDSSCHEMA
 90
        0
  1
AcDb_Thumbnail_Schema
  2
AcDbDs::ID
280
    10
 91
        8
  2
Thumbnail_Data
280
    15
 91
        0
101
ACDSRECORD
 95
        0
 90
        1
  2
AcDbDs::TreatedAsObjectData
280
     1
291
     1
101
ACDSRECORD
 95
        0
 90
        2
  2
AcDbDs::Legacy
280
     1
291
     1
101
ACDSRECORD
  1
AcDbDs::ID
 90
        3
  2
AcDs:Indexable
280
     1
291
     1
101
ACDSRECORD
  1
AcDbDs::ID
 90
        4
  2
AcDbDs::HandleAttribute
280
     7
282
     1
  0
ACDSSCHEMA
 90
        1
  1
AcDbDs::TreatedAsObjectDataSchema
  2
AcDbDs::TreatedAsObjectData
280
     1
 91
        0
  0
ACDSSCHEMA
 90
        2
  1
AcDbDs::LegacySchema
  2
AcDbDs::Legacy
280
     1
 91
        0
  0
ACDSSCHEMA
 90
        3
  1
AcDbDs::IndexedPropertySchema
  2
AcDs:Indexable
280
     1
 91
        0
  0
ACDSSCHEMA
 90
        4
  1
AcDbDs::HandleAttributeSchema
  2
AcDbDs::HandleAttribute
280
     7
 91
        1
284
     1
  0
ACDSRECORD
 90
        0
  2
AcDbDs::ID
280
    10
320
20
  2
Thumbnail_Data
280
    15
 94
     2885
310
89504E470D0A1A0A0000000D49484452000001000000008B0803000000B9ACB7FB00000300504C5445D6D6D6FFFFFFD6D6D60000000000000000000000000000000000000000000000000000330000660000990000CC0000FF0033000033330033660033990033CC0033FF0066000066330066660066990066CC0066FF0099
310
000099330099660099990099CC0099FF00CC0000CC3300CC6600CC9900CCCC00CCFF00FF0000FF3300FF6600FF9900FFCC00FFFF3300003300333300663300993300CC3300FF3333003333333333663333993333CC3333FF3366003366333366663366993366CC3366FF3399003399333399663399993399CC3399FF33CC00
310
33CC3333CC6633CC9933CCCC33CCFF33FF0033FF3333FF6633FF9933FFCC33FFFF6600006600336600666600996600CC6600FF6633006633336633666633996633CC6633FF6666006666336666666666996666CC6666FF6699006699336699666699996699CC6699FF66CC0066CC3366CC6666CC9966CCCC66CCFF66FF0066
310
FF3366FF6666FF9966FFCC66FFFF9900009900339900669900999900CC9900FF9933009933339933669933999933CC9933FF9966009966339966669966999966CC9966FF9999009999339999669999999999CC9999FF99CC0099CC3399CC6699CC9999CCCC99CCFF99FF0099FF3399FF6699FF9999FFCC99FFFFCC0000CC00
310
33CC0066CC0099CC00CCCC00FFCC3300CC3333CC3366CC3399CC33CCCC33FFCC6600CC6633CC6666CC6699CC66CCCC66FFCC9900CC9933CC9966CC9999CC99CCCC99FFCCCC00CCCC33CCCC66CCCC99CCCCCCCCCCFFCCFF00CCFF33CCFF66CCFF99CCFFCCCCFFFFFF0000FF0033FF0066FF0099FF00CCFF00FFFF3300FF3333
310
FF3366FF3399FF33CCFF33FFFF6600FF6633FF6666FF6699FF66CCFF66FFFF9900FF9933FF9966FF9999FF99CCFF99FFFFCC00FFCC33FFCC66FFCC99FFCCCCFFCCFFFFFF00FFFF33FFFF66FFFF99FFFFCCFFFFFF0000000D0D0D1A1A1A2828283535354343435050505D5D5D6B6B6B787878868686939393A1A1A1AEAEAEBB
310
BBBBC9C9C9D6D6D6E4E4E4F1F1F1FFFFFF0000000000000000000000000000000000000000000000000000000000008A60A2FA0000009B4944415478DAEDD94B0A8020144051F7BFCCB792261161D94F85C473268599835B11514A000000000000000000000000004C2406571F60F0EB2780000D56E8F4740920800002780B
310
082080000208208000020820C0EF03AC1F00DB97405C0F3C9FF965EAF1DC6CB7CB1D10F9366E0E44796679E0C522BB8B73B6EB11104000010410400001EA5698FDEF3000000000000000000000000000035900953C79FBC93CF9A00000000049454E44AE426082000000000000002399008F2904A4E70581D3000000004945
310
4E44AE426082CB40E847163042287C95DC50DE1B56B27E2F1C4D5559CC32D8C8D5C46741A3B7093C0E0040559FAAF935E55CA43CF9E39393FB1AA53409869585F432D90F33FAF6C9C96D8BD3FD034D9B1D2F08E09793FBBD0026B42A091033E04E29A90E2CE07313B8BF004B271892B1BFA53B1C72721B0418684DC04E0B50
310
A5FBDFDBC8B7AD00C35B0002E42D21853E523A608B54B594545F1610E3A028405ECC2F52528D9B80720116F5EF312555D90234574DF39828A89C7E6A3244D9D0D30C9F181B550069740102028C29806CA7349200597F30F54FA35BC048029456318D244061C1C660021496709C11403BCED4BEFD0A6A640CE79AC0F65C4F4A
310
7C76B030A25C5F770BD85782BC9D406301760FFA5A35817602F4706949630B30BC05542F110BB8A000AB3DEE28023CF4783CA69A3FDF85108E871D0D04A81E11AD045CC734D0CE728F0920EF26703CF86C2480CBAEDFD64EF0A800F19E753ABA8C839D2F4F26880BC2BE8E9A642B1CE717BB156071BBD6FFD18F7751850BA5
310
2FA9DF8DEFDF37C66C6C022B17B2F6D3B1001F87187B0478BB904CCBAA69B54A4F94904E840185EA9EB380352758B309A4D97AA5E59A0D04387121D55D4A2B190B586C62EE5480EA8E5B6605E3152C20740B022000025CD0099AE06AFAA9186679241654FDA6E5B150DD4EB6FED7E420C01C5BCDD3758733428E84107C66C9
310
E67D4A4A31C0F150F83FBF965E62A66DDF4BE96BE10A385BC0F0025C712B47FF4EF082B0BB1DE0EA8D386D19509EFF3399F0149C9ECED4F5E8C594368EDA0C70B6C554CB50FD6602C4F87BFA2C7FEAA2CCEEA2B399BA1E9B807D6080CC94B4B2BD45CAD5A0FF03B8911BC8A7A262FF171613603E89AA3EE2F93813933A8660
310
E6A83C1355FD08A0BCB25A44457512551D4703A9BEB6A7330F9DA892A8020000000000000000000000000000000000000000000000000000000000000000000000000000807BF1070B16FF4C0E6A5E810000000049454E44AE426082BCD50D974CFC10C099617E19408E66C91A0B9C5FB77847000F3F787E1ABC320B640140
310
5700D02700022E8C84BAAEDF0510D50216FCA105442C886C4E504C017E24F8B905C4AE08BD7FA12300EDB9EA0404720697007C62016D2B0942AD93BF6C012800FE13F187007017006AEBC77927B84F01197D00D85EC7971DDC290E387104C2029CBED1DD01B0DD4EFEC30E6E0FE0D6A170012800A723C14BA5B2FB5900A61F
310
02281F50000A405A00FF001B35EA4E099F3EE20000000049454E44AE4260823682A7EB01584EF7F0F8E0E96A0056CE81B17F2E8CD27FD66E0E401C6BD975DA9B0A49EDEAC1D3F50DE1EF1E9739F71EFAA4A80250000A4001280005A00014800250000A4001280005A000148002485FEE3F290005B03343C6A3E95E5ECB9F74
310
177B5B09C0783CBDABBF5E787FBD5E55CDA7078071191ED86F7871ECF5D843121F058005804DEE8D47300D5A7A69AFF60710F9D1CB049747ACE38B4B006C433F61E7EBF28D0F0190A6005B6CE7422B3F0400F6E3BFB1F4DE5DC38B23AB18AB06243E7BB30D58248660B009000C40E8F818440E388406A4003C25444A7EFCA3
310
06C4A107EFD8F4E185D054D680F5777BCBCF00B001F64279BD88727AD54F00603C084012A809603A0B00A3B02208862B6837F8546606C3CFFD6003BCBC7F3905B0D9CE96CEF2E3262F100DA3B77B2163EF27DF15671ED3CE9FD5006C72B3AF2C2EE0A67540D4A46008A499765287979C1427019C1A995B17426156C8BE7205
310
280038A901782680FB6CC02BA66D11F1070AC0DDE815C3B3D5E43F6150ABDD801710950000000049454E44AE42608274573C39CC00C49F58A660E8B8654A5AA7DCFC3468A1A841681A84110D124B963498CA3A363E1E37310D329D8585004510142984554AA868B068138C8FC6A5963B292B267E9D0A80289B51F3966681E4
310
5DD4235EC91B84CAA56281F29D93D2606A5A453569514170E86E785791AEEE7CF03C00C81726F0170670075F04207E694ACBEDD277AA54DEDA373300E1EA889C5601D07727EF5A79EB774E0C40A62649EFAEDBE31E79DBBE0935B96925B1DFF88DDFF8D218305770706E783E63F7C8EB1E1E93CAE22FD4053A82C0F023A790
310
C533F5BAB5AB4F6ED774DF91C5A573AD920AAE0480545BCB0F4A8F65F1AA2E40D2B77E73FA3EB2F4BBEAE69A0680F241E95216B7A80784B907AFEFE801D59B5BD34C4D2CD469927E9BAB6340AE5E1782486BC31F9FC6E8BC59AD00E95FE507445B2BC05F0D40199AFEFC5016F743593C3D1E5BF844509217E90C403EEAFB65
310
F10E00D7160DDF2F8BB7A73A150D6A1638AA3A6CC65D1A1702605381978A9CAE6001518B51FD7D48162F637D770550BFEF0C34A8CBBFFB6571798A2DD16063EDF44421D499AFA6C14C1687862C9EF1DC5D59BC770B902CDE98AABFF039C73BEAF57D593CE8E14A1687862C8EED0592079889F4F2967A0D27C9E2E47349209C
310
412F4F8FE6488F61B91DCED76FE52EBF6B1ABD09809E6FFC91DF288BAFA52CEEA410D1FE1F3F5416A749EE92C53B1F399B24F4CF4862BFF11BAF0DEF7F08E0F801F01B9F37FE070EFEB090FA26005A0000000049454E44AE426082
  0
ENDSEC
  0
EOF
