  0
SECTION
  2
HEADER
  9
$ACADVER
  1
AC1032
  9
$ACADMAINTVER
 90
      230
  9
$DWGCODEPAGE
  3
ANSI_1252
  9
$LASTSAVEDBY
  1
jskala
  9
$REQUIREDVERSIONS
160
                 0
  9
$INSBASE
 10
0.0
 20
0.0
 30
0.0
  9
$EXTMIN
 10
3085.836181421335
 20
-553.4743053802399
 30
-0.0015258207003583
  9
$EXTMAX
 10
3116.747802642154
 20
-542.4534635965885
 30
0.0000000349246037
  9
$LIMMIN
 10
0.0
 20
0.0
  9
$LIMMAX
 10
0.0
 20
0.0
  9
$ORTHOMODE
 70
     0
  9
$REGENMODE
 70
     1
  9
$FILLMODE
 70
     1
  9
$QTEXTMODE
 70
     0
  9
$MIRRTEXT
 70
     1
  9
$LTSCALE
 40
2.0
  9
$ATTMODE
 70
     1
  9
$TEXTSIZE
 40
2.0
  9
$TRACEWID
 40
0.05
  9
$TEXTSTYLE
  7
ARIAL
  9
$CLAYER
  8
1
  9
$CELTYPE
  6
ByLayer
  9
$CECOLOR
 62
   256
  9
$CELTSCALE
 40
1.0
  9
$DISPSILH
 70
     0
  9
$DIMSCALE
 40
1.0
  9
$DIMASZ
 40
0.5
  9
$DIMEXO
 40
1.5
  9
$DIMDLI
 40
6.0
  9
$DIMRND
 40
0.0
  9
$DIMDLE
 40
0.0
  9
$DIMEXE
 40
0.18
  9
$DIMTP
 40
0.0
  9
$DIMTM
 40
0.0
  9
$DIMTXT
 40
1.0
  9
$DIMCEN
 40
0.09
  9
$DIMTSZ
 40
0.0
  9
$DIMTOL
 70
     0
  9
$DIMLIM
 70
     0
  9
$DIMTIH
 70
     0
  9
$DIMTOH
 70
     0
  9
$DIMSE1
 70
     0
  9
$DIMSE2
 70
     0
  9
$DIMTAD
 70
     0
  9
$DIMZIN
 70
     3
  9
$DIMBLK
  1

  9
$DIMASO
 70
     1
  9
$DIMSHO
 70
     1
  9
$DIMPOST
  1

  9
$DIMAPOST
  1

  9
$DIMALT
 70
     0
  9
$DIMALTD
 70
     2
  9
$DIMALTF
 40
25.4
  9
$DIMLFAC
 40
1.0
  9
$DIMTOFL
 70
     0
  9
$DIMTVP
 40
0.0
  9
$DIMTIX
 70
     0
  9
$DIMSOXD
 70
     1
  9
$DIMSAH
 70
     0
  9
$DIMBLK1
  1

  9
$DIMBLK2
  1

  9
$DIMSTYLE
  2
ONE
  9
$DIMCLRD
 70
   256
  9
$DIMCLRE
 70
   256
  9
$DIMCLRT
 70
   256
  9
$DIMTFAC
 40
1.0
  9
$DIMGAP
 40
0.78125
  9
$DIMJUST
 70
     0
  9
$DIMSD1
 70
     0
  9
$DIMSD2
 70
     0
  9
$DIMTOLJ
 70
     1
  9
$DIMTZIN
 70
     0
  9
$DIMALTZ
 70
     0
  9
$DIMALTTZ
 70
     0
  9
$DIMUPT
 70
     0
  9
$DIMDEC
 70
     4
  9
$DIMTDEC
 70
     4
  9
$DIMALTU
 70
     2
  9
$DIMALTTD
 70
     2
  9
$DIMTXSTY
  7
ARIAL
  9
$DIMAUNIT
 70
     0
  9
$DIMADEC
 70
     0
  9
$DIMALTRND
 40
0.0
  9
$DIMAZIN
 70
     0
  9
$DIMDSEP
 70
     0
  9
$DIMATFIT
 70
     3
  9
$DIMFRAC
 70
     0
  9
$DIMLDRBLK
  1

  9
$DIMLUNIT
 70
     4
  9
$DIMLWD
 70
    25
  9
$DIMLWE
 70
    25
  9
$DIMTMOVE
 70
     1
  9
$DIMFXL
 40
1.0
  9
$DIMFXLON
 70
     0
  9
$DIMJOGANG
 40
0.7853981633974483
  9
$DIMTFILL
 70
     0
  9
$DIMTFILLCLR
 70
     0
  9
$DIMARCSYM
 70
     0
  9
$DIMLTYPE
  6
ByLayer
  9
$DIMLTEX1
  6
ByLayer
  9
$DIMLTEX2
  6
ByLayer
  9
$DIMTXTDIRECTION
 70
     0
  9
$LUNITS
 70
     4
  9
$LUPREC
 70
     3
  9
$SKETCHINC
 40
0.1
  9
$FILLETRAD
 40
0.5
  9
$AUNITS
 70
     0
  9
$AUPREC
 70
     0
  9
$MENU
  1
acad
  9
$ELEVATION
 40
0.0
  9
$PELEVATION
 40
0.0
  9
$THICKNESS
 40
0.0
  9
$LIMCHECK
 70
     0
  9
$CHAMFERA
 40
0.0
  9
$CHAMFERB
 40
0.0
  9
$CHAMFERC
 40
0.0
  9
$CHAMFERD
 40
0.0
  9
$SKPOLY
 70
     0
  9
$TDCREATE
 40
2456678.430266204
  9
$TDUCREATE
 40
2456678.638603773
  9
$TDUPDATE
 40
2460151.378715278
  9
$TDUUPDATE
 40
2460151.545381945
  9
$TDINDWG
 40
18.3944975347
  9
$TDUSRTIMER
 40
18.3944969907
  9
$USRTIMER
 70
     1
  9
$ANGBASE
 50
0.0
  9
$ANGDIR
 70
     0
  9
$PDMODE
 70
     2
  9
$PDSIZE
 40
-2.0
  9
$PLINEWID
 40
0.0
  9
$SPLFRAME
 70
     0
  9
$SPLINETYPE
 70
     6
  9
$SPLINESEGS
 70
     8
  9
$HANDSEED
  5
26F48F
  9
$SURFTAB1
 70
     6
  9
$SURFTAB2
 70
     6
  9
$SURFTYPE
 70
     6
  9
$SURFU
 70
     6
  9
$SURFV
 70
     6
  9
$UCSBASE
  2

  9
$UCSNAME
  2

  9
$UCSORG
 10
0.0
 20
0.0
 30
0.0
  9
$UCSXDIR
 10
1.0
 20
0.0
 30
0.0
  9
$UCSYDIR
 10
0.0
 20
1.0
 30
0.0
  9
$UCSORTHOREF
  2

  9
$UCSORTHOVIEW
 70
     0
  9
$UCSORGTOP
 10
0.0
 20
0.0
 30
0.0
  9
$UCSORGBOTTOM
 10
0.0
 20
0.0
 30
0.0
  9
$UCSORGLEFT
 10
0.0
 20
0.0
 30
0.0
  9
$UCSORGRIGHT
 10
0.0
 20
0.0
 30
0.0
  9
$UCSORGFRONT
 10
0.0
 20
0.0
 30
0.0
  9
$UCSORGBACK
 10
0.0
 20
0.0
 30
0.0
  9
$PUCSBASE
  2

  9
$PUCSNAME
  2

  9
$PUCSORG
 10
0.0
 20
0.0
 30
0.0
  9
$PUCSXDIR
 10
1.0
 20
0.0
 30
0.0
  9
$PUCSYDIR
 10
0.0
 20
1.0
 30
0.0
  9
$PUCSORTHOREF
  2

  9
$PUCSORTHOVIEW
 70
     0
  9
$PUCSORGTOP
 10
0.0
 20
0.0
 30
0.0
  9
$PUCSORGBOTTOM
 10
0.0
 20
0.0
 30
0.0
  9
$PUCSORGLEFT
 10
0.0
 20
0.0
 30
0.0
  9
$PUCSORGRIGHT
 10
0.0
 20
0.0
 30
0.0
  9
$PUCSORGFRONT
 10
0.0
 20
0.0
 30
0.0
  9
$PUCSORGBACK
 10
0.0
 20
0.0
 30
0.0
  9
$USERI1
 70
     0
  9
$USERI2
 70
     0
  9
$USERI3
 70
     0
  9
$USERI4
 70
     0
  9
$USERI5
 70
     0
  9
$USERR1
 40
0.0
  9
$USERR2
 40
0.0
  9
$USERR3
 40
0.0
  9
$USERR4
 40
0.0
  9
$USERR5
 40
0.0
  9
$WORLDVIEW
 70
     1
  9
$SHADEDGE
 70
     3
  9
$SHADEDIF
 70
    70
  9
$TILEMODE
 70
     1
  9
$MAXACTVP
 70
    16
  9
$PINSBASE
 10
0.0
 20
0.0
 30
0.0
  9
$PLIMCHECK
 70
     0
  9
$PEXTMIN
 10
0.0
 20
0.0
 30
0.0
  9
$PEXTMAX
 10
0.0
 20
0.0
 30
0.0
  9
$PLIMMIN
 10
0.0
 20
0.0
  9
$PLIMMAX
 10
12.0
 20
9.0
  9
$UNITMODE
 70
     0
  9
$VISRETAIN
 70
     0
  9
$PLINEGEN
 70
     1
  9
$PSLTSCALE
 70
     1
  9
$TREEDEPTH
 70
  3020
  9
$CMLSTYLE
  2
Standard
  9
$CMLJUST
 70
     0
  9
$CMLSCALE
 40
1.0
  9
$PROXYGRAPHICS
 70
     0
  9
$MEASUREMENT
 70
     0
  9
$CELWEIGHT
370
    18
  9
$ENDCAPS
280
     0
  9
$JOINSTYLE
280
     0
  9
$LWDISPLAY
290
     1
  9
$INSUNITS
 70
     1
  9
$HYPERLINKBASE
  1

  9
$STYLESHEET
  1
ACADLT.CTB
  9
$XEDIT
290
     1
  9
$CEPSNTYPE
380
     0
  9
$PSTYLEMODE
290
     1
  9
$FINGERPRINTGUID
  2
{D36D2517-C4B8-41DC-82A4-000A163ABD10}
  9
$VERSIONGUID
  2
{08273D17-FFF4-8940-B780-D23920FF1997}
  9
$EXTNAMES
290
     1
  9
$PSVPSCALE
 40
0.0
  9
$OLESTARTUP
290
     0
  9
$SORTENTS
280
   127
  9
$INDEXCTL
280
     0
  9
$HIDETEXT
280
     0
  9
$XCLIPFRAME
280
     2
  9
$HALOGAP
280
     0
  9
$OBSCOLOR
 70
   257
  9
$OBSLTYPE
280
     0
  9
$INTERSECTIONDISPLAY
280
     0
  9
$INTERSECTIONCOLOR
 70
   257
  9
$DIMASSOC
280
     1
  9
$PROJECTNAME
  1

  9
$CAMERADISPLAY
290
     0
  9
$LENSLENGTH
 40
50.0
  9
$CAMERAHEIGHT
 40
0.0
  9
$STEPSPERSEC
 40
2.0
  9
$STEPSIZE
 40
6.0
  9
$3DDWFPREC
 40
2.0
  9
$PSOLWIDTH
 40
0.25
  9
$PSOLHEIGHT
 40
4.0
  9
$LOFTANG1
 40
1.570796326794896
  9
$LOFTANG2
 40
1.570796326794896
  9
$LOFTMAG1
 40
0.0
  9
$LOFTMAG2
 40
0.0
  9
$LOFTPARAM
 70
     7
  9
$LOFTNORMALS
280
     1
  9
$LATITUDE
 40
37.795
  9
$LONGITUDE
 40
-122.394
  9
$NORTHDIRECTION
 40
0.0
  9
$TIMEZONE
 70
 -8000
  9
$LIGHTGLYPHDISPLAY
280
     1
  9
$TILEMODELIGHTSYNCH
280
     1
  9
$CMATERIAL
347
8AE
  9
$SOLIDHIST
280
     0
  9
$SHOWHIST
280
     1
  9
$DWFFRAME
280
     2
  9
$DGNFRAME
280
     0
  9
$REALWORLDSCALE
290
     1
  9
$INTERFERECOLOR
 62
     1
  9
$INTERFEREOBJVS
345
8D0
  9
$INTERFEREVPVS
346
8CD
  9
$CSHADOW
280
     0
  9
$SHADOWPLANELOCATION
 40
0.0
  0
ENDSEC
  0
SECTION
  2
CLASSES
  0
CLASS
  1
IMAGE
  2
AcDbRasterImage
  3
ISM
 90
     2175
 91
        0
280
     0
281
     1
  0
CLASS
  1
DICTIONARYVAR
  2
AcDbDictionaryVar
  3
ObjectDBX Classes
 90
        0
 91
       15
280
     0
281
     0
  0
CLASS
  1
RASTERVARIABLES
  2
AcDbRasterVariables
  3
ISM
 90
        0
 91
        0
280
     0
281
     0
  0
CLASS
  1
IMAGEDEF
  2
AcDbRasterImageDef
  3
ISM
 90
        0
 91
        0
280
     0
281
     0
  0
CLASS
  1
IMAGEDEF_REACTOR
  2
AcDbRasterImageDefReactor
  3
ISM
 90
        1
 91
        0
280
     0
281
     0
  0
CLASS
  1
IDBUFFER
  2
AcDbIdBuffer
  3
ObjectDBX Classes
 90
        0
 91
        0
280
     0
281
     0
  0
CLASS
  1
SPATIAL_FILTER
  2
AcDbSpatialFilter
  3
ObjectDBX Classes
 90
        0
 91
        0
280
     0
281
     0
  0
CLASS
  1
SORTENTSTABLE
  2
AcDbSortentsTable
  3
ObjectDBX Classes
 90
        0
 91
        2
280
     0
281
     0
  0
CLASS
  1
LAYER_INDEX
  2
AcDbLayerIndex
  3
ObjectDBX Classes
 90
        0
 91
        0
280
     0
281
     0
  0
CLASS
  1
SPATIAL_INDEX
  2
AcDbSpatialIndex
  3
ObjectDBX Classes
 90
        0
 91
        0
280
     0
281
     0
  0
CLASS
  1
OBJECT_PTR
  2
CAseDLPNTableRecord
  3
ASE-LPNTableRecord
 90
        1
 91
        0
280
     0
281
     0
  0
CLASS
  1
PLOTSETTINGS
  2
AcDbPlotSettings
  3
ObjectDBX Classes
 90
        0
 91
        1
280
     0
281
     0
  0
CLASS
  1
ACDBDICTIONARYWDFLT
  2
AcDbDictionaryWithDefault
  3
ObjectDBX Classes
 90
        0
 91
        1
280
     0
281
     0
  0
CLASS
  1
WIPEOUT
  2
AcDbWipeout
  3
WipeOut|Product Desc: Object Enabler for WipeOut entity | Company: Autodesk, Inc. | WEB Address: www.autodesk.com
 90
     2175
 91
        0
280
     0
281
     1
  0
CLASS
  1
WIPEOUTVARIABLES
  2
AcDbWipeoutVariables
  3
"WipeOut|Product Desc:     WipeOut Dbx Application|Company:          Autodesk, Inc.|WEB Address:      www.autodesk.com"
 90
        0
 91
        1
280
     0
281
     0
  0
CLASS
  1
RTEXT
  2
RText
  3
RText|AutoCAD Express Tool|expresstools@autodesk.com
 90
     3071
 91
        0
280
     0
281
     1
  0
CLASS
  1
ARCALIGNEDTEXT
  2
AcDbArcAlignedText
  3
ATEXT|AutoCAD Express Tool|expresstools@autodesk.com
 90
        0
 91
        0
280
     0
281
     1
  0
CLASS
  1
MATERIAL
  2
AcDbMaterial
  3
ObjectDBX Classes
 90
     1153
 91
        3
280
     0
281
     0
  0
CLASS
  1
VISUALSTYLE
  2
AcDbVisualStyle
  3
ObjectDBX Classes
 90
     4095
 91
       24
280
     0
281
     0
  0
CLASS
  1
TABLESTYLE
  2
AcDbTableStyle
  3
ObjectDBX Classes
 90
     4095
 91
        1
280
     0
281
     0
  0
CLASS
  1
SCALE
  2
AcDbScale
  3
ObjectDBX Classes
 90
     1153
 91
       17
280
     0
281
     0
  0
CLASS
  1
MLEADERSTYLE
  2
AcDbMLeaderStyle
  3
ACDB_MLEADERSTYLE_CLASS
 90
     4095
 91
        1
280
     0
281
     0
  0
CLASS
  1
ACDBSECTIONVIEWSTYLE
  2
AcDbSectionViewStyle
  3
ObjectDBX Classes
 90
     1025
 91
        1
280
     0
281
     0
  0
CLASS
  1
ACDBDETAILVIEWSTYLE
  2
AcDbDetailViewStyle
  3
ObjectDBX Classes
 90
     1025
 91
        1
280
     0
281
     0
  0
CLASS
  1
ACARRAYJIGENTITY
  2
AcArrayJigEntity
  3
ACAD_ARRAY
 90
      129
 91
        0
280
     0
281
     1
  0
CLASS
  1
ACDBASSOCNETWORK
  2
AcDbAssocNetwork
  3
ObjectDBX Classes
 90
     1025
 91
        0
280
     0
281
     0
  0
CLASS
  1
ACDBASSOCACTION
  2
AcDbAssocAction
  3
ObjectDBX Classes
 90
     1025
 91
        0
280
     0
281
     0
  0
CLASS
  1
ACDBASSOCARRAYACTIONBODY
  2
AcDbAssocArrayActionBody
  3
ObjectDBX Classes
 90
     1025
 91
        0
280
     0
281
     0
  0
CLASS
  1
ACDBASSOCVERTEXACTIONPARAM
  2
AcDbAssocVertexActionParam
  3
ObjectDBX Classes
 90
     1025
 91
        0
280
     0
281
     0
  0
CLASS
  1
ACDBASSOCDEPENDENCY
  2
AcDbAssocDependency
  3
ObjectDBX Classes
 90
     1025
 91
        0
280
     0
281
     0
  0
CLASS
  1
ACDBASSOCARRAYRECTANGULARPARAMETERS
  2
AcDbAssocArrayRectangularParameters
  3
ObjectDBX Classes
 90
     1025
 91
        0
280
     0
281
     0
  0
CLASS
  1
ACDB_DYNAMICBLOCKPURGEPREVENTER_VERSION
  2
AcDbDynamicBlockPurgePreventer
  3
ObjectDBX Classes
 90
     1153
 91
        0
280
     0
281
     0
  0
CLASS
  1
MULTILEADER
  2
AcDbMLeader
  3
ACDB_MLEADER_CLASS
 90
     1025
 91
        0
280
     0
281
     1
  0
CLASS
  1
ACAD_TABLE
  2
AcDbTable
  3
ObjectDBX Classes
 90
     1025
 91
        0
280
     0
281
     1
  0
CLASS
  1
ACAD_EVALUATION_GRAPH
  2
AcDbEvalGraph
  3
ObjectDBX Classes
 90
     1153
 91
        0
280
     0
281
     0
  0
CLASS
  1
ACAECUSTOBJ
  2
AcAeEditorObj
  3
AcAeEditorObj
 90
     1024
 91
        0
280
     0
281
     0
  0
CLASS
  1
ACDB_MTEXTOBJECTCONTEXTDATA_CLASS
  2
AcDbMTextObjectContextData
  3
ObjectDBX Classes
 90
     1153
 91
        0
280
     0
281
     0
  0
CLASS
  1
ACDB_TEXTOBJECTCONTEXTDATA_CLASS
  2
AcDbTextObjectContextData
  3
ObjectDBX Classes
 90
     1153
 91
        0
280
     0
281
     0
  0
CLASS
  1
TABLECONTENT
  2
AcDbTableContent
  3
ObjectDBX Classes
 90
     1152
 91
        0
280
     0
281
     0
  0
CLASS
  1
TABLEGEOMETRY
  2
AcDbTableGeometry
  3
ObjectDBX Classes
 90
     1152
 91
        0
280
     0
281
     0
  0
CLASS
  1
DBCOLOR
  2
AcDbColor
  3
ObjectDBX Classes
 90
        0
 91
        1
280
     0
281
     0
  0
CLASS
  1
ARC_DIMENSION
  2
AcDbArcDimension
  3
ObjectDBX Classes
 90
     1025
 91
        0
280
     0
281
     1
  0
CLASS
  1
ACDB_ALDIMOBJECTCONTEXTDATA_CLASS
  2
AcDbAlignedDimensionObjectContextData
  3
ObjectDBX Classes
 90
     1153
 91
        0
280
     0
281
     0
  0
CLASS
  1
DIMASSOC
  2
AcDbDimAssoc
  3
"AcDbDimAssoc|Product Desc:     AcDim ARX App For Dimension|Company:          Autodesk, Inc.|WEB Address:      www.autodesk.com"
 90
        0
 91
        0
280
     0
281
     0
  0
CLASS
  1
BLOCKLINEARPARAMETER
  2
AcDbBlockLinearParameter
  3
ObjectDBX Classes
 90
     1153
 91
        0
280
     0
281
     0
  0
CLASS
  1
BLOCKLINEARGRIP
  2
AcDbBlockLinearGrip
  3
ObjectDBX Classes
 90
     1153
 91
        0
280
     0
281
     0
  0
CLASS
  1
BLOCKGRIPLOCATIONCOMPONENT
  2
AcDbBlockGripExpr
  3
ObjectDBX Classes
 90
     1153
 91
        0
280
     0
281
     0
  0
CLASS
  1
LINEARGRIPENTITY
  2
AcDbBlockLinearGripEntity
  3
ObjectDBX Classes
 90
     1025
 91
        0
280
     0
281
     1
  0
CLASS
  1
ACAEEEMGROBJ
  2
AcAeEEMgrObj
  3
AcAeEEMgrObj
 90
     1024
 91
        0
280
     0
281
     0
  0
CLASS
  1
LINEARPARAMETERENTITY
  2
AcDbBlockLinearParameterEntity
  3
ObjectDBX Classes
 90
     1025
 91
        0
280
     0
281
     1
  0
CLASS
  1
BLOCKSTRETCHACTION
  2
AcDbBlockStretchAction
  3
ObjectDBX Classes
 90
     1153
 91
        0
280
     0
281
     0
  0
CLASS
  1
STRETCHACTIONENTITY
  2
AcDbBlockStretchActionEntity
  3
ObjectDBX Classes
 90
     1025
 91
        0
280
     0
281
     1
  0
CLASS
  1
ACDB_BLOCKREPRESENTATION_DATA
  2
AcDbBlockRepresentationData
  3
ObjectDBX Classes
 90
     1153
 91
        0
280
     0
281
     0
  0
CLASS
  1
ACDBPOINTCLOUDCOLORMAP
  2
AcDbPointCloudColorMap
  3
AcDbPointCloudObj
 90
     1025
 91
        1
280
     0
281
     0
  0
CLASS
  1
BREAKDATA
  2
AcDbBreakData
  3
ObjectDBX Classes
 90
     1024
 91
        0
280
     0
281
     0
  0
CLASS
  1
SOLID_BACKGROUND
  2
AcDbSolidBackground
  3
SCENEOE
 90
     4095
 91
        0
280
     0
281
     0
  0
CLASS
  1
NPOCOLLECTION
  2
AcDbImpNonPersistentObjectsCollection
  3
ObjectDBX Classes
 90
     1153
 91
        0
280
     0
281
     0
  0
CLASS
  1
BLOCKLOOKUPPARAMETER
  2
AcDbBlockLookupParameter
  3
ObjectDBX Classes
 90
     1153
 91
        0
280
     0
281
     0
  0
CLASS
  1
BLOCKLOOKUPGRIP
  2
AcDbBlockLookupGrip
  3
ObjectDBX Classes
 90
     1153
 91
        0
280
     0
281
     0
  0
CLASS
  1
LOOKUPGRIPENTITY
  2
AcDbBlockLookupGripEntity
  3
ObjectDBX Classes
 90
     1025
 91
        0
280
     0
281
     1
  0
CLASS
  1
LOOKUPPARAMETERENTITY
  2
AcDbBlockLookupParameterEntity
  3
ObjectDBX Classes
 90
     1025
 91
        0
280
     0
281
     1
  0
CLASS
  1
BLOCKLOOKUPACTION
  2
AcDbBlockLookupAction
  3
ObjectDBX Classes
 90
     1153
 91
        0
280
     0
281
     0
  0
CLASS
  1
LOOKUPACTIONENTITY
  2
AcDbBlockLookupActionEntity
  3
ObjectDBX Classes
 90
     1025
 91
        0
280
     0
281
     1
  0
CLASS
  1
FIELD
  2
AcDbField
  3
ObjectDBX Classes
 90
     1152
 91
        0
280
     0
281
     0
  0
CLASS
  1
FIELDLIST
  2
AcDbFieldList
  3
ObjectDBX Classes
 90
     1152
 91
        1
280
     0
281
     0
  0
CLASS
  1
AcDbCenterLineActionBody
  2
AcDbCenterLineActionBody
  3
AcDbSmartCenter
 90
     1153
 91
        0
280
     0
281
     0
  0
CLASS
  1
ACDBASSOCEDGEACTIONPARAM
  2
AcDbAssocEdgeActionParam
  3
ObjectDBX Classes
 90
     1025
 91
        0
280
     0
281
     0
  0
CLASS
  1
ACDBASSOCGEOMDEPENDENCY
  2
AcDbAssocGeomDependency
  3
ObjectDBX Classes
 90
     1025
 91
        0
280
     0
281
     0
  0
CLASS
  1
AcDbCenterMarkActionBody
  2
AcDbCenterMarkActionBody
  3
AcDbSmartCenter
 90
     1153
 91
        0
280
     0
281
     0
  0
CLASS
  1
CELLSTYLEMAP
  2
AcDbCellStyleMap
  3
ObjectDBX Classes
 90
     1152
 91
        2
280
     0
281
     0
  0
ENDSEC
  0
SECTION
  2
TABLES
  0
TABLE
  2
VPORT
  5
7
330
0
100
AcDbSymbolTable
 70
     1
  0
VPORT
  5
15
330
7
100
AcDbSymbolTableRecord
100
AcDbViewportTableRecord
  2
*ACTIVE
 70
     0
 10
0.0
 20
0.0
 11
1.0
 21
1.0
 12
6158.754265286715
 22
-1226.437006631442
 13
0.0
 23
0.0
 14
1.0
 24
1.0
 15
0.0
 25
0.0
 16
0.0
 26
0.0
 36
104.3856760867504
 17
-3057.462273254971
 27
678.4731221430277
 37
0.0
 40
22.45728774839006
 41
1.841040462427745
 42
50.0
 43
0.0
 44
0.0
 50
0.0
 51
0.0
 71
     0
 72
   100
 73
     1
 74
     0
 75
     0
 76
     0
 77
     0
 78
     0
281
     0
 65
     0
110
0.0
120
0.0
130
0.0
111
1.0
121
0.0
131
0.0
112
0.0
122
1.0
132
0.0
 79
     0
146
0.0
348
8CC
 60
     3
 61
     5
292
     1
282
     1
141
0.0
142
0.0
 63
   250
421
  3355443
1001
ACAD_NAV_VCDISPLAY
1070
     3
  0
ENDTAB
  0
TABLE
  2
LTYPE
  5
4
330
0
100
AcDbSymbolTable
 70
     1
  0
LTYPE
  5
11
330
4
100
AcDbSymbolTableRecord
100
AcDbLinetypeTableRecord
  2
ByBlock
 70
     0
  3

 72
    65
 73
     0
 40
0.0
  0
LTYPE
  5
12
330
4
100
AcDbSymbolTableRecord
100
AcDbLinetypeTableRecord
  2
ByLayer
 70
     0
  3

 72
    65
 73
     0
 40
0.0
  0
LTYPE
  5
13
330
4
100
AcDbSymbolTableRecord
100
AcDbLinetypeTableRecord
  2
Continuous
 70
     0
  3
Solid line
 72
    65
 73
     0
 40
0.0
  0
ENDTAB
  0
TABLE
  2
LAYER
  5
2
102
{ACAD_XDICTIONARY
360
11AE
102
}
330
0
100
AcDbSymbolTable
 70
     3
  0
LAYER
  5
14
102
{ACAD_XDICTIONARY
360
EDD
102
}
330
2
100
AcDbSymbolTableRecord
100
AcDbLayerTableRecord
  2
0
 70
     0
 62
    12
  6
Continuous
370
    30
390
1D
347
8BE
348
0
  0
LAYER
  5
966
102
{ACAD_XDICTIONARY
360
245C61
102
}
330
2
100
AcDbSymbolTableRecord
100
AcDbLayerTableRecord
  2
Defpoints
 70
     0
 62
     7
  6
Continuous
290
     0
370
    -3
390
1D
347
8BE
348
0
  0
LAYER
  5
22E2
102
{ACAD_XDICTIONARY
360
187404
102
}
330
2
100
AcDbSymbolTableRecord
100
AcDbLayerTableRecord
  2
1
 70
     0
 62
     7
  6
Continuous
370
    25
390
1D
347
8BE
348
0
1001
AcAecLayerStandard
1000

1000

1001
AcCmTransparency
1071
        0
  0
ENDTAB
  0
TABLE
  2
STYLE
  5
3
330
0
100
AcDbSymbolTable
 70
     2
  0
STYLE
  5
17
330
3
100
AcDbSymbolTableRecord
100
AcDbTextStyleTableRecord
  2
Standard
 70
     0
 40
0.0
 41
1.0
 50
0.0
 71
     0
 42
2.0
  3
ARIALUNI.ttf
  4

1001
ACAD
1000
@Arial Unicode MS
1071
       34
  0
STYLE
  5
1897EC
330
3
100
AcDbSymbolTableRecord
100
AcDbTextStyleTableRecord
  2
ARIAL
 70
     0
 40
1.0
 41
1.0
 50
0.0
 71
     0
 42
2.0
  3
arial.ttf
  4

1001
AcadAnnotative
1000
AnnotativeData
1002
{
1070
     1
1070
     0
1002
}
1001
ACAD
1000
Arial
1071
       34
  0
ENDTAB
  0
TABLE
  2
VIEW
  5
5
330
0
100
AcDbSymbolTable
 70
     0
  0
ENDTAB
  0
TABLE
  2
UCS
  5
6
330
0
100
AcDbSymbolTable
 70
     0
  0
ENDTAB
  0
TABLE
  2
APPID
  5
8
330
0
100
AcDbSymbolTable
 70
    23
  0
APPID
  5
16
330
8
100
AcDbSymbolTableRecord
100
AcDbRegAppTableRecord
  2
ACAD
 70
     0
  0
APPID
  5
8FD
330
8
100
AcDbSymbolTableRecord
100
AcDbRegAppTableRecord
  2
ACAD_EXEMPT_FROM_CAD_STANDARDS
 70
     0
  0
APPID
  5
943
330
8
100
AcDbSymbolTableRecord
100
AcDbRegAppTableRecord
  2
DCO15
 70
     0
  0
APPID
  5
945
330
8
100
AcDbSymbolTableRecord
100
AcDbRegAppTableRecord
  2
ACAD_NAV_VCDISPLAY
 70
     0
  0
APPID
  5
AFA
330
8
100
AcDbSymbolTableRecord
100
AcDbRegAppTableRecord
  2
AcadAnnoMonitorAlertIconDisabled
 70
     0
  0
APPID
  5
BC8
330
8
100
AcDbSymbolTableRecord
100
AcDbRegAppTableRecord
  2
ACAD_DSTYLE_DIMJAG
 70
     0
  0
APPID
  5
BC9
330
8
100
AcDbSymbolTableRecord
100
AcDbRegAppTableRecord
  2
ACAD_DSTYLE_DIMTALN
 70
     0
  0
APPID
  5
E01
330
8
100
AcDbSymbolTableRecord
100
AcDbRegAppTableRecord
  2
ACAD_PSEXT
 70
     0
  0
APPID
  5
1F7B
330
8
100
AcDbSymbolTableRecord
100
AcDbRegAppTableRecord
  2
ACAD_DSTYLE_DIMBREAK
 70
     0
  0
APPID
  5
2231
330
8
100
AcDbSymbolTableRecord
100
AcDbRegAppTableRecord
  2
AcDbDynamicBlockTrueName2
 70
     0
  0
APPID
  5
2232
330
8
100
AcDbSymbolTableRecord
100
AcDbRegAppTableRecord
  2
AcDbDynamicBlockGUID
 70
     0
  0
APPID
  5
2267
330
8
100
AcDbSymbolTableRecord
100
AcDbRegAppTableRecord
  2
AcAecLayerStandard
 70
     0
  0
APPID
  5
2268
330
8
100
AcDbSymbolTableRecord
100
AcDbRegAppTableRecord
  2
AcCmTransparency
 70
     0
  0
APPID
  5
9399
330
8
100
AcDbSymbolTableRecord
100
AcDbRegAppTableRecord
  2
GradientColor1ACI
 70
     0
  0
APPID
  5
939A
330
8
100
AcDbSymbolTableRecord
100
AcDbRegAppTableRecord
  2
GradientColor2ACI
 70
     0
  0
APPID
  5
2AD42
330
8
100
AcDbSymbolTableRecord
100
AcDbRegAppTableRecord
  2
ACAUTHENVIRON
 70
     0
  0
APPID
  5
2AD46
330
8
100
AcDbSymbolTableRecord
100
AcDbRegAppTableRecord
  2
AcDbDynamicBlockTrueName
 70
     0
  0
APPID
  5
48B98
330
8
100
AcDbSymbolTableRecord
100
AcDbRegAppTableRecord
  2
AcadAnnotative
 70
     0
  0
APPID
  5
E4A07
330
8
100
AcDbSymbolTableRecord
100
AcDbRegAppTableRecord
  2
ACAD_DSTYLE_DIMRADIAL_EXTENSION
 70
     0
  0
APPID
  5
19B4F7
330
8
100
AcDbSymbolTableRecord
100
AcDbRegAppTableRecord
  2
AcDbBlockRepETag
 70
     0
  0
APPID
  5
19B4FA
330
8
100
AcDbSymbolTableRecord
100
AcDbRegAppTableRecord
  2
AcDbBlockRepBTag
 70
     0
  0
APPID
  5
1EBD0F
330
8
100
AcDbSymbolTableRecord
100
AcDbRegAppTableRecord
  2
AcadAnnoAV
 70
     0
  0
APPID
  5
228DC0
330
8
100
AcDbSymbolTableRecord
100
AcDbRegAppTableRecord
  2
HATCHBACKGROUNDCOLOR
 70
     0
  0
ENDTAB
  0
TABLE
  2
DIMSTYLE
  5
9
330
0
100
AcDbSymbolTable
 70
     2
100
AcDbDimStyleTable
 71
     2
340
1F7C
340
18
  0
DIMSTYLE
105
18
330
9
100
AcDbSymbolTableRecord
100
AcDbDimStyleTableRecord
  2
Standard
 70
     0
140
2.0
340
1897EC
1001
ACAD_DSTYLE_DIMJAG
1070
   388
1040
1.5
1001
ACAD_DSTYLE_DIMTALN
1070
   392
1070
     0
  0
DIMSTYLE
105
1F7C
330
9
100
AcDbSymbolTableRecord
100
AcDbDimStyleTableRecord
  2
ONE
 70
     0
 41
0.5
 42
1.5
 43
6.0
 73
     0
 74
     0
 78
     3
140
1.0
147
0.78125
175
     1
176
   256
177
   256
178
   256
277
     4
278
     0
279
     1
340
1897EC
345
12
346
12
347
12
371
    25
372
    25
1001
ACAD_DSTYLE_DIMBREAK
1070
   391
1040
1.5
1001
ACAD_DSTYLE_DIMJAG
1070
   388
1040
1.5
1001
ACAD_DSTYLE_DIMTALN
1070
   392
1070
     0
  0
ENDTAB
  0
TABLE
  2
BLOCK_RECORD
  5
1
330
0
100
AcDbSymbolTable
 70
     1
  0
BLOCK_RECORD
  5
A
102
{ACAD_XDICTIONARY
360
9AF
102
}
330
1
100
AcDbSymbolTableRecord
100
AcDbBlockTableRecord
  2
*MODEL_SPACE
340
20
 70
     0
280
     1
281
     0
  0
BLOCK_RECORD
  5
26E9FA
330
1
100
AcDbSymbolTableRecord
100
AcDbBlockTableRecord
  2
*Paper_Space
340
26E9FB
 70
     0
280
     1
281
     0
  0
ENDTAB
  0
ENDSEC
  0
SECTION
  2
BLOCKS
  0
BLOCK
  5
D
330
A
100
AcDbEntity
  8
0
100
AcDbBlockBegin
  2
*MODEL_SPACE
 70
     0
 10
0.0
 20
0.0
 30
0.0
  3
*MODEL_SPACE
  1

  0
ENDBLK
  5
E
330
A
100
AcDbEntity
  8
0
100
AcDbBlockEnd
  0
BLOCK
  5
26E9FC
330
26E9FA
100
AcDbEntity
 67
     1
  8
0
370
    18
100
AcDbBlockBegin
  2
*Paper_Space
 70
     0
 10
0.0
 20
0.0
 30
0.0
  3
*Paper_Space
  1

  0
ENDBLK
  5
26E9FD
330
26E9FA
100
AcDbEntity
 67
     1
  8
0
370
    18
100
AcDbBlockEnd
  0
ENDSEC
  0
SECTION
  2
ENTITIES
  0
LINE
  5
26F2A1
330
A
100
AcDbEntity
  8
1
  6
Continuous
 62
     7
100
AcDbLine
 10
3085.931454912487
 20
-545.8210333403766
 30
0.0
 11
3116.63876522231
 21
-545.8210333403766
 31
0.0
1001
AcDbBlockRepETag
1070
     1
1071
       24
1005
0
  0
TEXT
  5
26F2A2
102
{ACAD_XDICTIONARY
360
26F2A3
102
}
330
A
100
AcDbEntity
  8
1
  6
Continuous
 62
     7
100
AcDbText
 10
3087.250844777673
 20
-545.6228305868526
 30
0.0
 40
2.5
  1
TYPE WP-RN3SG
  7
ARIAL
100
AcDbText
1001
AcadAnnotative
1000
AnnotativeData
1002
{
1070
     1
1070
     0
1002
}
1001
AcDbBlockRepETag
1070
     1
1071
       25
1005
0
  0
TEXT
  5
26F2A6
102
{ACAD_XDICTIONARY
360
26F2A7
102
}
330
A
100
AcDbEntity
  8
1
  6
Continuous
 62
     7
100
AcDbText
 10
3095.62266249209
 20
-548.3480023956018
 30
0.0
 40
1.25
  1
SECTION VIEW
  7
ARIAL
100
AcDbText
1001
AcadAnnotative
1000
AnnotativeData
1002
{
1070
     1
1070
     0
1002
}
  0
LINE
  5
26F2AA
330
A
100
AcDbEntity
  8
1
  6
Continuous
 62
     7
100
AcDbLine
 10
3095.519408128375
 20
-548.5769505174751
 30
0.0
 11
3108.681426319384
 21
-548.5769505174751
 31
0.0
  0
LWPOLYLINE
  5
26F2AB
330
A
100
AcDbEntity
  8
1
  6
Continuous
 62
     7
100
AcDbPolyline
 90
       41
 70
     1
 43
0.0
 10
3103.987427445867
 20
-552.7305869365696
 10
3103.924348565558
 20
-552.7305869365696
 10
3103.924348565558
 20
-552.5795897747042
 10
3103.486348840216
 20
-552.5795897747042
 10
3103.486348840216
 20
-552.7307395244601
 10
3103.424132081487
 20
-552.7307395244601
 10
3103.424132081487
 20
-552.5795897747042
 10
3102.603998872259
 20
-552.5795897747042
 10
3102.580315324285
 20
-552.7305869365696
 10
3102.443684312322
 20
-552.7305869365696
 10
3102.419998857
 20
-552.5795897747042
 10
3101.262058946111
 20
-552.5795897747042
 10
3101.262058946111
 20
-552.7305869365696
 10
3101.145333024482
 20
-552.7305869365696
 42
-0.5759718143076884
 10
3101.132405015447
 20
-552.7080878520968
 10
3101.178539964178
 20
-552.6281813884739
 42
0.5782523674294529
 10
3101.165547105292
 20
-552.6056803966524
 10
3100.986134263495
 20
-552.6056803966524
 42
-0.4083320653538521
 10
3101.236134263495
 20
-552.3605880046848
 10
3101.204886170843
 20
-552.5170897747042
 10
3101.720755311468
 20
-552.5170897747042
 10
3101.689507218817
 20
-552.3605880046848
 10
3101.814507218817
 20
-552.3605880046848
 10
3101.783259126166
 20
-552.5170897747042
 10
3102.299128266789
 20
-552.5170897747042
 10
3102.267870637396
 20
-552.3605779911044
 10
3102.517880174139
 20
-552.3605880046848
 10
3102.486632081487
 20
-552.5170897747042
 10
3102.924132081487
 20
-552.5170897747042
 10
3102.892880174139
 20
-552.3605880046848
 10
3103.017880174139
 20
-552.3605880046848
 10
3102.986632081487
 20
-552.5170897747042
 10
3103.424132081487
 20
-552.5170897747042
 10
3103.392880174139
 20
-552.3605880046848
 10
3103.517880174138
 20
-552.3605880046848
 10
3103.486632081488
 20
-552.5170897747042
 10
3103.924132081488
 20
-552.5170897747042
 10
3103.892880174139
 20
-552.3605880046848
 10
3104.018677445867
 20
-552.3605880046848
 10
3104.018677445867
 20
-552.4855880046848
 10
3103.987427445867
 20
-552.4855880046848
  0
LWPOLYLINE
  5
26F2AC
330
A
100
AcDbEntity
  8
1
  6
Continuous
 62
     7
100
AcDbPolyline
 90
       46
 70
     1
 43
0.0
 10
3103.86734840534
 20
-553.0223182941439
 10
3103.86734840534
 20
-552.8285483623508
 10
3104.125679704168
 20
-552.8285483623508
 10
3104.125679704168
 20
-552.3605880046848
 10
3104.032677384833
 20
-552.3605880046848
 10
3104.032677384833
 20
-552.7355880046846
 10
3103.773348542669
 20
-552.7355880046846
 10
3103.773348542669
 20
-553.2490882183077
 10
3103.637348863105
 20
-553.2490882183077
 10
3103.637348863105
 20
-552.7355880046846
 10
3101.137558671454
 20
-552.7355880046846
 42
-0.5773746924759317
 10
3101.124567719916
 20
-552.7130884433749
 10
3101.170698853949
 20
-552.6331791187288
 42
0.5772475497744746
 10
3101.157707902411
 20
-552.610679557419
 10
3100.986187669256
 20
-552.610679557419
 10
3100.986187669256
 20
-552.8909301067356
 42
0.4142608649986501
 10
3101.017437669256
 20
-552.9221801067356
 10
3101.017533036687
 20
-552.9221801067356
 42
0.2979637143253661
 10
3101.046164247015
 20
-552.9034537578586
 42
-0.2979901443462092
 10
3101.160687180975
 20
-552.8285483623508
 10
3102.439436646918
 20
-552.8285483623508
 42
-0.4141998078568572
 10
3102.470686646917
 20
-552.8597983623508
 10
3102.470686646917
 20
-553.2972296977999
 10
3102.360937806585
 20
-553.209369590378
 10
3102.360937806585
 20
-553.3284796978001
 10
3102.517187806586
 20
-553.4535865093235
 10
3102.673437806585
 20
-553.3284796978001
 10
3102.673437806585
 20
-553.209369590378
 10
3102.563688966253
 20
-553.2972296977999
 10
3102.563688966253
 20
-552.8597983623508
 42
-0.4139412986322043
 10
3102.594938966253
 20
-552.8285483623508
 10
3103.543349000433
 20
-552.8285483623508
 10
3103.543349000433
 20
-553.0223182941439
 10
3103.480849000433
 20
-553.0223182941439
 10
3103.480849000433
 20
-553.085318496323
 10
3103.543349000433
 20
-553.085318496323
 10
3103.543349000433
 20
-553.279588153458
 10
3103.480849000433
 20
-553.279588153458
 10
3103.480849000433
 20
-553.342088153458
 10
3103.86734840534
 20
-553.342088153458
 10
3103.929848405341
 20
-553.342088153458
 10
3103.929848405341
 20
-553.279588153458
 10
3103.86734840534
 20
-553.279588153458
 10
3103.86734840534
 20
-553.085318496323
 10
3103.929848405341
 20
-553.085318496323
 10
3103.929848405341
 20
-553.0223182941439
  0
LWPOLYLINE
  5
26F2AD
330
A
100
AcDbEntity
  8
1
  6
Continuous
 62
     7
100
AcDbPolyline
 90
        7
 70
     0
 43
0.0
 10
3101.819409597801
 20
-552.3293380046518
 10
3101.814507218817
 20
-552.3605880046848
 10
3101.783259126166
 20
-552.5170897747042
 10
3102.299128266789
 20
-552.5170897747042
 10
3102.267870637396
 20
-552.3605779911044
 10
3102.262968258411
 20
-552.3293279910715
 10
3101.819411168693
 20
-552.3293279910715
  0
LWPOLYLINE
  5
26F2AE
330
A
100
AcDbEntity
  8
1
  6
Continuous
 62
     7
100
AcDbPolyline
 90
        7
 70
     0
 43
0.0
 10
3101.236134263495
 20
-552.3605880046848
 10
3101.204886170843
 20
-552.5170897747042
 10
3101.720755311468
 20
-552.5170897747042
 10
3101.689507218817
 20
-552.3605880046848
 10
3101.684604839832
 20
-552.3293380046518
 10
3101.241111166109
 20
-552.3293380046518
 10
3101.236208787125
 20
-552.3605880046848
  0
LWPOLYLINE
  5
26F2AF
330
A
100
AcDbEntity
  8
1
  6
Continuous
 62
     7
100
AcDbPolyline
 90
        6
 70
     1
 43
0.0
 10
3103.486632081488
 20
-552.5170897747042
 10
3103.924132081488
 20
-552.5170897747042
 10
3103.892880174139
 20
-552.3605880046848
 10
3103.887977795154
 20
-552.3293380046518
 10
3103.522782553123
 20
-552.3293380046518
 10
3103.517880174138
 20
-552.3605880046848
  0
LWPOLYLINE
  5
26F2B0
330
A
100
AcDbEntity
  8
1
  6
Continuous
 62
     7
100
AcDbPolyline
 90
        6
 70
     1
 43
0.0
 10
3103.017880174139
 20
-552.3605880046848
 10
3102.986632081487
 20
-552.5170897747042
 10
3103.424132081487
 20
-552.5170897747042
 10
3103.392880174139
 20
-552.3605880046848
 10
3103.387977795155
 20
-552.3293380046518
 10
3103.022781696202
 20
-552.3293380046518
  0
LWPOLYLINE
  5
26F2B1
330
A
100
AcDbEntity
  8
1
  6
Continuous
 62
     7
100
AcDbPolyline
 90
        6
 70
     1
 43
0.0
 10
3102.517880174139
 20
-552.3605880046848
 10
3102.522782553124
 20
-552.3293380046518
 10
3102.887977795155
 20
-552.3293380046518
 10
3102.892880174139
 20
-552.3605880046848
 10
3102.924132081487
 20
-552.5170897747042
 10
3102.486632081487
 20
-552.5170897747042
  0
LINE
  5
26F3B2
102
{ACAD_REACTORS
330
26F48C
102
}
330
A
100
AcDbEntity
  8
1
  6
Continuous
 62
     7
100
AcDbLine
 10
3103.623773745632
 20
-552.9947490001351
 30
0.0
 11
3103.642629794217
 21
-552.9864978099495
 31
0.0
  0
LINE
  5
26F3B3
102
{ACAD_REACTORS
330
26F48C
102
}
330
A
100
AcDbEntity
  8
1
  6
Continuous
 62
     7
100
AcDbLine
 10
3103.623773745632
 20
-552.9947490001351
 30
0.0
 11
3103.642629794217
 21
-553.0030001903208
 31
0.0
  0
LINE
  5
26F3B4
102
{ACAD_REACTORS
330
26F48C
102
}
330
A
100
AcDbEntity
  8
1
  6
Continuous
 62
     7
100
AcDbLine
 10
3103.642629794217
 20
-552.9864978099495
 30
0.0
 11
3103.642629794217
 21
-552.9723986888559
 31
0.0
  0
LINE
  5
26F3B5
102
{ACAD_REACTORS
330
26F48C
102
}
330
A
100
AcDbEntity
  8
1
  6
Continuous
 62
     7
100
AcDbLine
 10
3103.768919161892
 20
-553.0035762096077
 30
0.0
 11
3103.768919161892
 21
-552.9894770885142
 31
0.0
  0
LINE
  5
26F3B6
102
{ACAD_REACTORS
330
26F48C
102
}
330
A
100
AcDbEntity
  8
1
  6
Continuous
 62
     7
100
AcDbLine
 10
3103.623773745632
 20
-552.9641474986703
 30
0.0
 11
3103.642629794217
 21
-552.9558963084848
 31
0.0
  0
LINE
  5
26F3B7
102
{ACAD_REACTORS
330
26F48C
102
}
330
A
100
AcDbEntity
  8
1
  6
Continuous
 62
     7
100
AcDbLine
 10
3103.623773745632
 20
-552.9641474986703
 30
0.0
 11
3103.642629794217
 21
-552.9723986888559
 31
0.0
  0
LINE
  5
26F3B8
102
{ACAD_REACTORS
330
26F48C
102
}
330
A
100
AcDbEntity
  8
1
  6
Continuous
 62
     7
100
AcDbLine
 10
3103.787771395779
 20
-552.9812258983286
 30
0.0
 11
3103.768919161892
 21
-552.9894770885142
 31
0.0
  0
LINE
  5
26F3B9
102
{ACAD_REACTORS
330
26F48C
102
}
330
A
100
AcDbEntity
  8
1
  6
Continuous
 62
     7
100
AcDbLine
 10
3103.787771395779
 20
-552.9812258983286
 30
0.0
 11
3103.768919161892
 21
-552.9729747081431
 31
0.0
  0
LINE
  5
26F3BA
102
{ACAD_REACTORS
330
26F48C
102
}
330
A
100
AcDbEntity
  8
1
  6
Continuous
 62
     7
100
AcDbLine
 10
3103.642629794217
 20
-552.9558963084848
 30
0.0
 11
3103.642629794217
 21
-552.941797187391
 31
0.0
  0
LINE
  5
26F3BB
102
{ACAD_REACTORS
330
26F48C
102
}
330
A
100
AcDbEntity
  8
1
  6
Continuous
 62
     7
100
AcDbLine
 10
3103.768919161892
 20
-552.9729747081431
 30
0.0
 11
3103.768919161892
 21
-552.9588755870492
 31
0.0
  0
LINE
  5
26F3BC
102
{ACAD_REACTORS
330
26F48C
102
}
330
A
100
AcDbEntity
  8
1
  6
Continuous
 62
     7
100
AcDbLine
 10
3103.623773745632
 20
-552.9335459972055
 30
0.0
 11
3103.642629794217
 21
-552.9252948070201
 31
0.0
  0
LINE
  5
26F3BD
102
{ACAD_REACTORS
330
26F48C
102
}
330
A
100
AcDbEntity
  8
1
  6
Continuous
 62
     7
100
AcDbLine
 10
3103.623773745632
 20
-552.9335459972055
 30
0.0
 11
3103.642629794217
 21
-552.941797187391
 31
0.0
  0
LINE
  5
26F3BE
102
{ACAD_REACTORS
330
26F48C
102
}
330
A
100
AcDbEntity
  8
1
  6
Continuous
 62
     7
100
AcDbLine
 10
3103.787771395779
 20
-552.9506243968637
 30
0.0
 11
3103.768919161892
 21
-552.9588755870492
 31
0.0
  0
LINE
  5
26F3BF
102
{ACAD_REACTORS
330
26F48C
102
}
330
A
100
AcDbEntity
  8
1
  6
Continuous
 62
     7
100
AcDbLine
 10
3103.787771395779
 20
-552.9506243968637
 30
0.0
 11
3103.768919161892
 21
-552.942373206678
 31
0.0
  0
LINE
  5
26F3C0
102
{ACAD_REACTORS
330
26F48C
102
}
330
A
100
AcDbEntity
  8
1
  6
Continuous
 62
     7
100
AcDbLine
 10
3103.642629794217
 20
-552.9252948070201
 30
0.0
 11
3103.642629794217
 21
-552.9111956859261
 31
0.0
  0
LINE
  5
26F3C1
102
{ACAD_REACTORS
330
26F48C
102
}
330
A
100
AcDbEntity
  8
1
  6
Continuous
 62
     7
100
AcDbLine
 10
3103.768919161892
 20
-552.942373206678
 30
0.0
 11
3103.768919161892
 21
-552.9282740855844
 31
0.0
  0
LINE
  5
26F3C2
102
{ACAD_REACTORS
330
26F48C
102
}
330
A
100
AcDbEntity
  8
1
  6
Continuous
 62
     7
100
AcDbLine
 10
3103.787771395779
 20
-552.9200228953988
 30
0.0
 11
3103.623773745632
 21
-552.9029444957406
 31
0.0
  0
LINE
  5
26F3C3
102
{ACAD_REACTORS
330
26F48C
102
}
330
A
100
AcDbEntity
  8
1
  6
Continuous
 62
     7
100
AcDbLine
 10
3103.623773745632
 20
-552.9029444957406
 30
0.0
 11
3103.642629794217
 21
-552.894693305555
 31
0.0
  0
LINE
  5
26F3C4
102
{ACAD_REACTORS
330
26F48C
102
}
330
A
100
AcDbEntity
  8
1
  6
Continuous
 62
     7
100
AcDbLine
 10
3103.623773745632
 20
-552.9029444957406
 30
0.0
 11
3103.642629794217
 21
-552.9111956859261
 31
0.0
  0
LINE
  5
26F3C5
102
{ACAD_REACTORS
330
26F48C
102
}
330
A
100
AcDbEntity
  8
1
  6
Continuous
 62
     7
100
AcDbLine
 10
3103.787771395779
 20
-552.9200228953988
 30
0.0
 11
3103.768919161892
 21
-552.9282740855844
 31
0.0
  0
LINE
  5
26F3C6
102
{ACAD_REACTORS
330
26F48C
102
}
330
A
100
AcDbEntity
  8
1
  6
Continuous
 62
     7
100
AcDbLine
 10
3103.787771395779
 20
-552.9200228953988
 30
0.0
 11
3103.768919161892
 21
-552.9117717052133
 31
0.0
  0
LINE
  5
26F3C7
102
{ACAD_REACTORS
330
26F48C
102
}
330
A
100
AcDbEntity
  8
1
  6
Continuous
 62
     7
100
AcDbLine
 10
3103.768919161892
 20
-552.9117717052133
 30
0.0
 11
3103.642629794217
 21
-552.894693305555
 31
0.0
  0
LINE
  5
26F3C8
102
{ACAD_REACTORS
330
26F48C
102
}
330
A
100
AcDbEntity
  8
1
  6
Continuous
 62
     7
100
AcDbLine
 10
3103.768919161892
 20
-552.9282740855844
 30
0.0
 11
3103.642629794217
 21
-552.9111956859261
 31
0.0
  0
LINE
  5
26F3C9
102
{ACAD_REACTORS
330
26F48C
102
}
330
A
100
AcDbEntity
  8
1
  6
Continuous
 62
     7
100
AcDbLine
 10
3103.642629794217
 20
-552.894693305555
 30
0.0
 11
3103.642629794217
 21
-552.8805941844613
 31
0.0
  0
LINE
  5
26F3CA
102
{ACAD_REACTORS
330
26F48C
102
}
330
A
100
AcDbEntity
  8
1
  6
Continuous
 62
     7
100
AcDbLine
 10
3103.768919161892
 20
-552.9117717052133
 30
0.0
 11
3103.768919161892
 21
-552.8976725841196
 31
0.0
  0
LINE
  5
26F3CB
102
{ACAD_REACTORS
330
26F48C
102
}
330
A
100
AcDbEntity
  8
1
  6
Continuous
 62
     7
100
AcDbLine
 10
3103.787771395779
 20
-552.8894213939341
 30
0.0
 11
3103.623773745632
 21
-552.8723429942759
 31
0.0
  0
LINE
  5
26F3CC
102
{ACAD_REACTORS
330
26F48C
102
}
330
A
100
AcDbEntity
  8
1
  6
Continuous
 62
     7
100
AcDbLine
 10
3103.623773745632
 20
-552.8723429942759
 30
0.0
 11
3103.642629794217
 21
-552.8640918040902
 31
0.0
  0
LINE
  5
26F3CD
102
{ACAD_REACTORS
330
26F48C
102
}
330
A
100
AcDbEntity
  8
1
  6
Continuous
 62
     7
100
AcDbLine
 10
3103.623773745632
 20
-552.8723429942759
 30
0.0
 11
3103.642629794217
 21
-552.8805941844613
 31
0.0
  0
LINE
  5
26F3CE
102
{ACAD_REACTORS
330
26F48C
102
}
330
A
100
AcDbEntity
  8
1
  6
Continuous
 62
     7
100
AcDbLine
 10
3103.787771395779
 20
-552.8894213939341
 30
0.0
 11
3103.768919161892
 21
-552.8976725841196
 31
0.0
  0
LINE
  5
26F3CF
102
{ACAD_REACTORS
330
26F48C
102
}
330
A
100
AcDbEntity
  8
1
  6
Continuous
 62
     7
100
AcDbLine
 10
3103.787771395779
 20
-552.8894213939341
 30
0.0
 11
3103.768919161892
 21
-552.8811702037484
 31
0.0
  0
LINE
  5
26F3D0
102
{ACAD_REACTORS
330
26F48C
102
}
330
A
100
AcDbEntity
  8
1
  6
Continuous
 62
     7
100
AcDbLine
 10
3103.768919161892
 20
-552.8811702037484
 30
0.0
 11
3103.642629794217
 21
-552.8640918040902
 31
0.0
  0
LINE
  5
26F3D1
102
{ACAD_REACTORS
330
26F48C
102
}
330
A
100
AcDbEntity
  8
1
  6
Continuous
 62
     7
100
AcDbLine
 10
3103.768919161892
 20
-552.8976725841196
 30
0.0
 11
3103.642629794217
 21
-552.8805941844613
 31
0.0
  0
LINE
  5
26F3D2
102
{ACAD_REACTORS
330
26F48C
102
}
330
A
100
AcDbEntity
  8
1
  6
Continuous
 62
     7
100
AcDbLine
 10
3103.642629794217
 20
-552.8640918040902
 30
0.0
 11
3103.642629794217
 21
-552.8499926829965
 31
0.0
  0
LINE
  5
26F3D3
102
{ACAD_REACTORS
330
26F48C
102
}
330
A
100
AcDbEntity
  8
1
  6
Continuous
 62
     7
100
AcDbLine
 10
3103.768919161892
 20
-552.8811702037484
 30
0.0
 11
3103.768919161892
 21
-552.8670710826547
 31
0.0
  0
LINE
  5
26F3D4
102
{ACAD_REACTORS
330
26F48C
102
}
330
A
100
AcDbEntity
  8
1
  6
Continuous
 62
     7
100
AcDbLine
 10
3103.787771395779
 20
-552.8588198924693
 30
0.0
 11
3103.623773745632
 21
-552.8417414928111
 31
0.0
  0
LINE
  5
26F3D5
102
{ACAD_REACTORS
330
26F48C
102
}
330
A
100
AcDbEntity
  8
1
  6
Continuous
 62
     7
100
AcDbLine
 10
3103.623773745632
 20
-552.8417414928111
 30
0.0
 11
3103.642629794217
 21
-552.8334903026254
 31
0.0
  0
LINE
  5
26F3D6
102
{ACAD_REACTORS
330
26F48C
102
}
330
A
100
AcDbEntity
  8
1
  6
Continuous
 62
     7
100
AcDbLine
 10
3103.623773745632
 20
-552.8417414928111
 30
0.0
 11
3103.642629794217
 21
-552.8499926829965
 31
0.0
  0
LINE
  5
26F3D7
102
{ACAD_REACTORS
330
26F48C
102
}
330
A
100
AcDbEntity
  8
1
  6
Continuous
 62
     7
100
AcDbLine
 10
3103.787771395779
 20
-552.8588198924693
 30
0.0
 11
3103.768919161892
 21
-552.8670710826547
 31
0.0
  0
LINE
  5
26F3D8
102
{ACAD_REACTORS
330
26F48C
102
}
330
A
100
AcDbEntity
  8
1
  6
Continuous
 62
     7
100
AcDbLine
 10
3103.787771395779
 20
-552.8588198924693
 30
0.0
 11
3103.768919161892
 21
-552.8505687022836
 31
0.0
  0
LINE
  5
26F3D9
102
{ACAD_REACTORS
330
26F48C
102
}
330
A
100
AcDbEntity
  8
1
  6
Continuous
 62
     7
100
AcDbLine
 10
3103.768919161892
 20
-552.8505687022836
 30
0.0
 11
3103.642629794217
 21
-552.8334903026254
 31
0.0
  0
LINE
  5
26F3DA
102
{ACAD_REACTORS
330
26F48C
102
}
330
A
100
AcDbEntity
  8
1
  6
Continuous
 62
     7
100
AcDbLine
 10
3103.768919161892
 20
-552.8670710826547
 30
0.0
 11
3103.642629794217
 21
-552.8499926829965
 31
0.0
  0
LINE
  5
26F3DB
102
{ACAD_REACTORS
330
26F48C
102
}
330
A
100
AcDbEntity
  8
1
  6
Continuous
 62
     7
100
AcDbLine
 10
3103.642629794217
 20
-552.8334903026254
 30
0.0
 11
3103.642629794217
 21
-552.8193911815316
 31
0.0
  0
LINE
  5
26F3DC
102
{ACAD_REACTORS
330
26F48C
102
}
330
A
100
AcDbEntity
  8
1
  6
Continuous
 62
     7
100
AcDbLine
 10
3103.768919161892
 20
-552.8505687022836
 30
0.0
 11
3103.768919161892
 21
-552.8364695811899
 31
0.0
  0
LINE
  5
26F3DD
102
{ACAD_REACTORS
330
26F48C
102
}
330
A
100
AcDbEntity
  8
1
  6
Continuous
 62
     7
100
AcDbLine
 10
3103.787771395779
 20
-552.8282183910042
 30
0.0
 11
3103.623773745632
 21
-552.8111399913462
 31
0.0
  0
LINE
  5
26F3DE
102
{ACAD_REACTORS
330
26F48C
102
}
330
A
100
AcDbEntity
  8
1
  6
Continuous
 62
     7
100
AcDbLine
 10
3103.623773745632
 20
-552.8111399913462
 30
0.0
 11
3103.642629794217
 21
-552.8028888011605
 31
0.0
  0
LINE
  5
26F3DF
102
{ACAD_REACTORS
330
26F48C
102
}
330
A
100
AcDbEntity
  8
1
  6
Continuous
 62
     7
100
AcDbLine
 10
3103.623773745632
 20
-552.8111399913462
 30
0.0
 11
3103.642629794217
 21
-552.8193911815316
 31
0.0
  0
LINE
  5
26F3E0
102
{ACAD_REACTORS
330
26F48C
102
}
330
A
100
AcDbEntity
  8
1
  6
Continuous
 62
     7
100
AcDbLine
 10
3103.787771395779
 20
-552.8282183910042
 30
0.0
 11
3103.768919161892
 21
-552.8364695811899
 31
0.0
  0
LINE
  5
26F3E1
102
{ACAD_REACTORS
330
26F48C
102
}
330
A
100
AcDbEntity
  8
1
  6
Continuous
 62
     7
100
AcDbLine
 10
3103.787771395779
 20
-552.8282183910042
 30
0.0
 11
3103.768919161892
 21
-552.8199672008188
 31
0.0
  0
LINE
  5
26F3E2
102
{ACAD_REACTORS
330
26F48C
102
}
330
A
100
AcDbEntity
  8
1
  6
Continuous
 62
     7
100
AcDbLine
 10
3103.768919161892
 20
-552.8199672008188
 30
0.0
 11
3103.642629794217
 21
-552.8028888011605
 31
0.0
  0
LINE
  5
26F3E3
102
{ACAD_REACTORS
330
26F48C
102
}
330
A
100
AcDbEntity
  8
1
  6
Continuous
 62
     7
100
AcDbLine
 10
3103.768919161892
 20
-552.8364695811899
 30
0.0
 11
3103.642629794217
 21
-552.8193911815316
 31
0.0
  0
LINE
  5
26F3E4
102
{ACAD_REACTORS
330
26F48C
102
}
330
A
100
AcDbEntity
  8
1
  6
Continuous
 62
     7
100
AcDbLine
 10
3103.642629794217
 20
-552.8028888011605
 30
0.0
 11
3103.642629794217
 21
-552.7887896800668
 31
0.0
  0
LINE
  5
26F3E5
102
{ACAD_REACTORS
330
26F48C
102
}
330
A
100
AcDbEntity
  8
1
  6
Continuous
 62
     7
100
AcDbLine
 10
3103.768919161892
 20
-552.8199672008188
 30
0.0
 11
3103.768919161892
 21
-552.8058680797251
 31
0.0
  0
LINE
  5
26F3E6
102
{ACAD_REACTORS
330
26F48C
102
}
330
A
100
AcDbEntity
  8
1
  6
Continuous
 62
     7
100
AcDbLine
 10
3103.787771395779
 20
-552.7976168895394
 30
0.0
 11
3103.623773745632
 21
-552.7805384898812
 31
0.0
  0
LINE
  5
26F3E7
102
{ACAD_REACTORS
330
26F48C
102
}
330
A
100
AcDbEntity
  8
1
  6
Continuous
 62
     7
100
AcDbLine
 10
3103.623773745632
 20
-552.7805384898812
 30
0.0
 11
3103.642629794217
 21
-552.7722872996958
 31
0.0
  0
LINE
  5
26F3E8
102
{ACAD_REACTORS
330
26F48C
102
}
330
A
100
AcDbEntity
  8
1
  6
Continuous
 62
     7
100
AcDbLine
 10
3103.623773745632
 20
-552.7805384898812
 30
0.0
 11
3103.642629794217
 21
-552.7887896800668
 31
0.0
  0
LINE
  5
26F3E9
102
{ACAD_REACTORS
330
26F48C
102
}
330
A
100
AcDbEntity
  8
1
  6
Continuous
 62
     7
100
AcDbLine
 10
3103.787771395779
 20
-552.7976168895394
 30
0.0
 11
3103.768919161892
 21
-552.8058680797251
 31
0.0
  0
LINE
  5
26F3EA
102
{ACAD_REACTORS
330
26F48C
102
}
330
A
100
AcDbEntity
  8
1
  6
Continuous
 62
     7
100
AcDbLine
 10
3103.787771395779
 20
-552.7976168895394
 30
0.0
 11
3103.768919161892
 21
-552.789365699354
 31
0.0
  0
LINE
  5
26F3EB
102
{ACAD_REACTORS
330
26F48C
102
}
330
A
100
AcDbEntity
  8
1
  6
Continuous
 62
     7
100
AcDbLine
 10
3103.768919161892
 20
-552.789365699354
 30
0.0
 11
3103.642629794217
 21
-552.7722872996958
 31
0.0
  0
LINE
  5
26F3EC
102
{ACAD_REACTORS
330
26F48C
102
}
330
A
100
AcDbEntity
  8
1
  6
Continuous
 62
     7
100
AcDbLine
 10
3103.768919161892
 20
-552.8058680797251
 30
0.0
 11
3103.642629794217
 21
-552.7887896800668
 31
0.0
  0
LINE
  5
26F3ED
102
{ACAD_REACTORS
330
26F48C
102
}
330
A
100
AcDbEntity
  8
1
  6
Continuous
 62
     7
100
AcDbLine
 10
3103.642629794217
 20
-552.7722872996958
 30
0.0
 11
3103.642629794217
 21
-552.7581881786021
 31
0.0
  0
LINE
  5
26F3EE
102
{ACAD_REACTORS
330
26F48C
102
}
330
A
100
AcDbEntity
  8
1
  6
Continuous
 62
     7
100
AcDbLine
 10
3103.768919161892
 20
-552.789365699354
 30
0.0
 11
3103.768919161892
 21
-552.7752665782602
 31
0.0
  0
LINE
  5
26F3EF
102
{ACAD_REACTORS
330
26F48C
102
}
330
A
100
AcDbEntity
  8
1
  6
Continuous
 62
     7
100
AcDbLine
 10
3103.787771395779
 20
-552.7670153880746
 30
0.0
 11
3103.623773745632
 21
-552.7499369884164
 31
0.0
  0
LINE
  5
26F3F0
102
{ACAD_REACTORS
330
26F48C
102
}
330
A
100
AcDbEntity
  8
1
  6
Continuous
 62
     7
100
AcDbLine
 10
3103.623773745632
 20
-552.7499369884164
 30
0.0
 11
3103.642629794217
 21
-552.7416857982309
 31
0.0
  0
LINE
  5
26F3F1
102
{ACAD_REACTORS
330
26F48C
102
}
330
A
100
AcDbEntity
  8
1
  6
Continuous
 62
     7
100
AcDbLine
 10
3103.623773745632
 20
-552.7499369884164
 30
0.0
 11
3103.642629794217
 21
-552.7581881786021
 31
0.0
  0
LINE
  5
26F3F2
102
{ACAD_REACTORS
330
26F48C
102
}
330
A
100
AcDbEntity
  8
1
  6
Continuous
 62
     7
100
AcDbLine
 10
3103.787771395779
 20
-552.7670153880746
 30
0.0
 11
3103.768919161892
 21
-552.7752665782602
 31
0.0
  0
LINE
  5
26F3F3
102
{ACAD_REACTORS
330
26F48C
102
}
330
A
100
AcDbEntity
  8
1
  6
Continuous
 62
     7
100
AcDbLine
 10
3103.787771395779
 20
-552.7670153880746
 30
0.0
 11
3103.768919161892
 21
-552.7587641978891
 31
0.0
  0
LINE
  5
26F3F4
102
{ACAD_REACTORS
330
26F48C
102
}
330
A
100
AcDbEntity
  8
1
  6
Continuous
 62
     7
100
AcDbLine
 10
3103.768919161892
 20
-552.7587641978891
 30
0.0
 11
3103.642629794217
 21
-552.7416857982309
 31
0.0
  0
LINE
  5
26F3F5
102
{ACAD_REACTORS
330
26F48C
102
}
330
A
100
AcDbEntity
  8
1
  6
Continuous
 62
     7
100
AcDbLine
 10
3103.768919161892
 20
-552.7752665782602
 30
0.0
 11
3103.642629794217
 21
-552.7581881786021
 31
0.0
  0
LINE
  5
26F3F6
102
{ACAD_REACTORS
330
26F48C
102
}
330
A
100
AcDbEntity
  8
1
  6
Continuous
 62
     7
100
AcDbLine
 10
3103.642629794217
 20
-552.7416857982309
 30
0.0
 11
3103.642629794217
 21
-552.727586677137
 31
0.0
  0
LINE
  5
26F3F7
102
{ACAD_REACTORS
330
26F48C
102
}
330
A
100
AcDbEntity
  8
1
  6
Continuous
 62
     7
100
AcDbLine
 10
3103.768919161892
 20
-552.7587641978891
 30
0.0
 11
3103.768919161892
 21
-552.7446650767955
 31
0.0
  0
LINE
  5
26F3F8
102
{ACAD_REACTORS
330
26F48C
102
}
330
A
100
AcDbEntity
  8
1
  6
Continuous
 62
     7
100
AcDbLine
 10
3103.787771395779
 20
-552.7364138866098
 30
0.0
 11
3103.623773745632
 21
-552.7193354869515
 31
0.0
  0
LINE
  5
26F3F9
102
{ACAD_REACTORS
330
26F48C
102
}
330
A
100
AcDbEntity
  8
1
  6
Continuous
 62
     7
100
AcDbLine
 10
3103.623773745632
 20
-552.7193354869515
 30
0.0
 11
3103.642629794217
 21
-552.7110842967661
 31
0.0
  0
LINE
  5
26F3FA
102
{ACAD_REACTORS
330
26F48C
102
}
330
A
100
AcDbEntity
  8
1
  6
Continuous
 62
     7
100
AcDbLine
 10
3103.623773745632
 20
-552.7193354869515
 30
0.0
 11
3103.642629794217
 21
-552.727586677137
 31
0.0
  0
LINE
  5
26F3FB
102
{ACAD_REACTORS
330
26F48C
102
}
330
A
100
AcDbEntity
  8
1
  6
Continuous
 62
     7
100
AcDbLine
 10
3103.787771395779
 20
-552.7364138866098
 30
0.0
 11
3103.768919161892
 21
-552.7446650767955
 31
0.0
  0
LINE
  5
26F3FC
102
{ACAD_REACTORS
330
26F48C
102
}
330
A
100
AcDbEntity
  8
1
  6
Continuous
 62
     7
100
AcDbLine
 10
3103.787771395779
 20
-552.7364138866098
 30
0.0
 11
3103.768919161892
 21
-552.7281626964243
 31
0.0
  0
LINE
  5
26F3FD
102
{ACAD_REACTORS
330
26F48C
102
}
330
A
100
AcDbEntity
  8
1
  6
Continuous
 62
     7
100
AcDbLine
 10
3103.768919161892
 20
-552.7281626964243
 30
0.0
 11
3103.642629794217
 21
-552.7110842967661
 31
0.0
  0
LINE
  5
26F3FE
102
{ACAD_REACTORS
330
26F48C
102
}
330
A
100
AcDbEntity
  8
1
  6
Continuous
 62
     7
100
AcDbLine
 10
3103.768919161892
 20
-552.7446650767955
 30
0.0
 11
3103.642629794217
 21
-552.727586677137
 31
0.0
  0
LINE
  5
26F3FF
102
{ACAD_REACTORS
330
26F48C
102
}
330
A
100
AcDbEntity
  8
1
  6
Continuous
 62
     7
100
AcDbLine
 10
3103.642629794217
 20
-552.7110842967661
 30
0.0
 11
3103.642629794217
 21
-552.6969851756724
 31
0.0
  0
LINE
  5
26F400
102
{ACAD_REACTORS
330
26F48C
102
}
330
A
100
AcDbEntity
  8
1
  6
Continuous
 62
     7
100
AcDbLine
 10
3103.768919161892
 20
-552.7281626964243
 30
0.0
 11
3103.768919161892
 21
-552.7140635753304
 31
0.0
  0
LINE
  5
26F401
102
{ACAD_REACTORS
330
26F48C
102
}
330
A
100
AcDbEntity
  8
1
  6
Continuous
 62
     7
100
AcDbLine
 10
3103.787771395779
 20
-552.7058123851449
 30
0.0
 11
3103.623773745632
 21
-552.6887339854868
 31
0.0
  0
LINE
  5
26F402
102
{ACAD_REACTORS
330
26F48C
102
}
330
A
100
AcDbEntity
  8
1
  6
Continuous
 62
     7
100
AcDbLine
 10
3103.623773745632
 20
-552.6887339854868
 30
0.0
 11
3103.642629794217
 21
-552.6804827953013
 31
0.0
  0
LINE
  5
26F403
102
{ACAD_REACTORS
330
26F48C
102
}
330
A
100
AcDbEntity
  8
1
  6
Continuous
 62
     7
100
AcDbLine
 10
3103.623773745632
 20
-552.6887339854868
 30
0.0
 11
3103.642629794217
 21
-552.6969851756724
 31
0.0
  0
LINE
  5
26F404
102
{ACAD_REACTORS
330
26F48C
102
}
330
A
100
AcDbEntity
  8
1
  6
Continuous
 62
     7
100
AcDbLine
 10
3103.787771395779
 20
-552.7058123851449
 30
0.0
 11
3103.768919161892
 21
-552.7140635753304
 31
0.0
  0
LINE
  5
26F405
102
{ACAD_REACTORS
330
26F48C
102
}
330
A
100
AcDbEntity
  8
1
  6
Continuous
 62
     7
100
AcDbLine
 10
3103.787771395779
 20
-552.7058123851449
 30
0.0
 11
3103.768919161892
 21
-552.6975611949593
 31
0.0
  0
LINE
  5
26F406
102
{ACAD_REACTORS
330
26F48C
102
}
330
A
100
AcDbEntity
  8
1
  6
Continuous
 62
     7
100
AcDbLine
 10
3103.768919161892
 20
-552.6975611949593
 30
0.0
 11
3103.642629794217
 21
-552.6804827953013
 31
0.0
  0
LINE
  5
26F407
102
{ACAD_REACTORS
330
26F48C
102
}
330
A
100
AcDbEntity
  8
1
  6
Continuous
 62
     7
100
AcDbLine
 10
3103.768919161892
 20
-552.7140635753304
 30
0.0
 11
3103.642629794217
 21
-552.6969851756724
 31
0.0
  0
LINE
  5
26F408
102
{ACAD_REACTORS
330
26F48C
102
}
330
A
100
AcDbEntity
  8
1
  6
Continuous
 62
     7
100
AcDbLine
 10
3103.642629794217
 20
-552.6804827953013
 30
0.0
 11
3103.642629794217
 21
-552.6663836742073
 31
0.0
  0
LINE
  5
26F409
102
{ACAD_REACTORS
330
26F48C
102
}
330
A
100
AcDbEntity
  8
1
  6
Continuous
 62
     7
100
AcDbLine
 10
3103.768919161892
 20
-552.6975611949593
 30
0.0
 11
3103.768919161892
 21
-552.6834620738656
 31
0.0
  0
LINE
  5
26F40A
102
{ACAD_REACTORS
330
26F48C
102
}
330
A
100
AcDbEntity
  8
1
  6
Continuous
 62
     7
100
AcDbLine
 10
3103.787771395779
 20
-552.6752108836801
 30
0.0
 11
3103.623773745632
 21
-552.6581324840219
 31
0.0
  0
LINE
  5
26F40B
102
{ACAD_REACTORS
330
26F48C
102
}
330
A
100
AcDbEntity
  8
1
  6
Continuous
 62
     7
100
AcDbLine
 10
3103.623773745632
 20
-552.6581324840219
 30
0.0
 11
3103.642629794217
 21
-552.6498812938362
 31
0.0
  0
LINE
  5
26F40C
102
{ACAD_REACTORS
330
26F48C
102
}
330
A
100
AcDbEntity
  8
1
  6
Continuous
 62
     7
100
AcDbLine
 10
3103.623773745632
 20
-552.6581324840219
 30
0.0
 11
3103.642629794217
 21
-552.6663836742073
 31
0.0
  0
LINE
  5
26F40D
102
{ACAD_REACTORS
330
26F48C
102
}
330
A
100
AcDbEntity
  8
1
  6
Continuous
 62
     7
100
AcDbLine
 10
3103.787771395779
 20
-552.6752108836801
 30
0.0
 11
3103.768919161892
 21
-552.6834620738656
 31
0.0
  0
LINE
  5
26F40E
102
{ACAD_REACTORS
330
26F48C
102
}
330
A
100
AcDbEntity
  8
1
  6
Continuous
 62
     7
100
AcDbLine
 10
3103.787771395779
 20
-552.6752108836801
 30
0.0
 11
3103.768919161892
 21
-552.6669596934945
 31
0.0
  0
LINE
  5
26F40F
102
{ACAD_REACTORS
330
26F48C
102
}
330
A
100
AcDbEntity
  8
1
  6
Continuous
 62
     7
100
AcDbLine
 10
3103.768919161892
 20
-552.6669596934945
 30
0.0
 11
3103.642629794217
 21
-552.6498812938362
 31
0.0
  0
LINE
  5
26F410
102
{ACAD_REACTORS
330
26F48C
102
}
330
A
100
AcDbEntity
  8
1
  6
Continuous
 62
     7
100
AcDbLine
 10
3103.768919161892
 20
-552.6834620738656
 30
0.0
 11
3103.642629794217
 21
-552.6663836742073
 31
0.0
  0
LINE
  5
26F411
102
{ACAD_REACTORS
330
26F48C
102
}
330
A
100
AcDbEntity
  8
1
  6
Continuous
 62
     7
100
AcDbLine
 10
3103.642629794217
 20
-552.6498812938362
 30
0.0
 11
3103.642629794217
 21
-552.6357821727426
 31
0.0
  0
LINE
  5
26F412
102
{ACAD_REACTORS
330
26F48C
102
}
330
A
100
AcDbEntity
  8
1
  6
Continuous
 62
     7
100
AcDbLine
 10
3103.768919161892
 20
-552.6669596934945
 30
0.0
 11
3103.768919161892
 21
-552.6528605724008
 31
0.0
  0
LINE
  5
26F413
102
{ACAD_REACTORS
330
26F48C
102
}
330
A
100
AcDbEntity
  8
1
  6
Continuous
 62
     7
100
AcDbLine
 10
3103.787771395779
 20
-552.6446093822153
 30
0.0
 11
3103.623773745632
 21
-552.6275309825571
 31
0.0
  0
LINE
  5
26F414
102
{ACAD_REACTORS
330
26F48C
102
}
330
A
100
AcDbEntity
  8
1
  6
Continuous
 62
     7
100
AcDbLine
 10
3103.623773745632
 20
-552.6275309825571
 30
0.0
 11
3103.642629794217
 21
-552.6192797923715
 31
0.0
  0
LINE
  5
26F415
102
{ACAD_REACTORS
330
26F48C
102
}
330
A
100
AcDbEntity
  8
1
  6
Continuous
 62
     7
100
AcDbLine
 10
3103.623773745632
 20
-552.6275309825571
 30
0.0
 11
3103.642629794217
 21
-552.6357821727426
 31
0.0
  0
LINE
  5
26F416
102
{ACAD_REACTORS
330
26F48C
102
}
330
A
100
AcDbEntity
  8
1
  6
Continuous
 62
     7
100
AcDbLine
 10
3103.787771395779
 20
-552.6446093822153
 30
0.0
 11
3103.768919161892
 21
-552.6528605724008
 31
0.0
  0
LINE
  5
26F417
102
{ACAD_REACTORS
330
26F48C
102
}
330
A
100
AcDbEntity
  8
1
  6
Continuous
 62
     7
100
AcDbLine
 10
3103.787771395779
 20
-552.6446093822153
 30
0.0
 11
3103.768919161892
 21
-552.6363581920297
 31
0.0
  0
LINE
  5
26F418
102
{ACAD_REACTORS
330
26F48C
102
}
330
A
100
AcDbEntity
  8
1
  6
Continuous
 62
     7
100
AcDbLine
 10
3103.768919161892
 20
-552.6363581920297
 30
0.0
 11
3103.642629794217
 21
-552.6192797923715
 31
0.0
  0
LINE
  5
26F419
102
{ACAD_REACTORS
330
26F48C
102
}
330
A
100
AcDbEntity
  8
1
  6
Continuous
 62
     7
100
AcDbLine
 10
3103.768919161892
 20
-552.6528605724008
 30
0.0
 11
3103.642629794217
 21
-552.6357821727426
 31
0.0
  0
LINE
  5
26F41A
102
{ACAD_REACTORS
330
26F48C
102
}
330
A
100
AcDbEntity
  8
1
  6
Continuous
 62
     7
100
AcDbLine
 10
3103.642629794217
 20
-552.6192797923715
 30
0.0
 11
3103.642629794217
 21
-552.6051806712777
 31
0.0
  0
LINE
  5
26F41B
102
{ACAD_REACTORS
330
26F48C
102
}
330
A
100
AcDbEntity
  8
1
  6
Continuous
 62
     7
100
AcDbLine
 10
3103.768919161892
 20
-552.6363581920297
 30
0.0
 11
3103.768919161892
 21
-552.6222590709359
 31
0.0
  0
LINE
  5
26F41C
102
{ACAD_REACTORS
330
26F48C
102
}
330
A
100
AcDbEntity
  8
1
  6
Continuous
 62
     7
100
AcDbLine
 10
3103.787771395779
 20
-552.6140078807505
 30
0.0
 11
3103.623773745632
 21
-552.5969294810923
 31
0.0
  0
LINE
  5
26F41D
102
{ACAD_REACTORS
330
26F48C
102
}
330
A
100
AcDbEntity
  8
1
  6
Continuous
 62
     7
100
AcDbLine
 10
3103.623773745632
 20
-552.5969294810923
 30
0.0
 11
3103.642629794217
 21
-552.5886782909066
 31
0.0
  0
LINE
  5
26F41E
102
{ACAD_REACTORS
330
26F48C
102
}
330
A
100
AcDbEntity
  8
1
  6
Continuous
 62
     7
100
AcDbLine
 10
3103.623773745632
 20
-552.5969294810923
 30
0.0
 11
3103.642629794217
 21
-552.6051806712777
 31
0.0
  0
LINE
  5
26F41F
102
{ACAD_REACTORS
330
26F48C
102
}
330
A
100
AcDbEntity
  8
1
  6
Continuous
 62
     7
100
AcDbLine
 10
3103.787771395779
 20
-552.6140078807505
 30
0.0
 11
3103.768919161892
 21
-552.6222590709359
 31
0.0
  0
LINE
  5
26F420
102
{ACAD_REACTORS
330
26F48C
102
}
330
A
100
AcDbEntity
  8
1
  6
Continuous
 62
     7
100
AcDbLine
 10
3103.787771395779
 20
-552.6140078807505
 30
0.0
 11
3103.768919161892
 21
-552.6057566905648
 31
0.0
  0
LINE
  5
26F421
102
{ACAD_REACTORS
330
26F48C
102
}
330
A
100
AcDbEntity
  8
1
  6
Continuous
 62
     7
100
AcDbLine
 10
3103.768919161892
 20
-552.6057566905648
 30
0.0
 11
3103.642629794217
 21
-552.5886782909066
 31
0.0
  0
LINE
  5
26F422
102
{ACAD_REACTORS
330
26F48C
102
}
330
A
100
AcDbEntity
  8
1
  6
Continuous
 62
     7
100
AcDbLine
 10
3103.768919161892
 20
-552.6222590709359
 30
0.0
 11
3103.642629794217
 21
-552.6051806712777
 31
0.0
  0
LINE
  5
26F423
102
{ACAD_REACTORS
330
26F48C
102
}
330
A
100
AcDbEntity
  8
1
  6
Continuous
 62
     7
100
AcDbLine
 10
3103.642629794217
 20
-552.5886782909066
 30
0.0
 11
3103.642629794217
 21
-552.5745791698129
 31
0.0
  0
LINE
  5
26F424
102
{ACAD_REACTORS
330
26F48C
102
}
330
A
100
AcDbEntity
  8
1
  6
Continuous
 62
     7
100
AcDbLine
 10
3103.768919161892
 20
-552.6057566905648
 30
0.0
 11
3103.768919161892
 21
-552.5916575694711
 31
0.0
  0
LINE
  5
26F425
102
{ACAD_REACTORS
330
26F48C
102
}
330
A
100
AcDbEntity
  8
1
  6
Continuous
 62
     7
100
AcDbLine
 10
3103.787771395779
 20
-552.5834063792855
 30
0.0
 11
3103.623773745632
 21
-552.5663279796274
 31
0.0
  0
LINE
  5
26F426
102
{ACAD_REACTORS
330
26F48C
102
}
330
A
100
AcDbEntity
  8
1
  6
Continuous
 62
     7
100
AcDbLine
 10
3103.623773745632
 20
-552.5663279796274
 30
0.0
 11
3103.642629794217
 21
-552.5580767894417
 31
0.0
  0
LINE
  5
26F427
102
{ACAD_REACTORS
330
26F48C
102
}
330
A
100
AcDbEntity
  8
1
  6
Continuous
 62
     7
100
AcDbLine
 10
3103.623773745632
 20
-552.5663279796274
 30
0.0
 11
3103.642629794217
 21
-552.5745791698129
 31
0.0
  0
LINE
  5
26F428
102
{ACAD_REACTORS
330
26F48C
102
}
330
A
100
AcDbEntity
  8
1
  6
Continuous
 62
     7
100
AcDbLine
 10
3103.787771395779
 20
-552.5834063792855
 30
0.0
 11
3103.768919161892
 21
-552.5916575694711
 31
0.0
  0
LINE
  5
26F429
102
{ACAD_REACTORS
330
26F48C
102
}
330
A
100
AcDbEntity
  8
1
  6
Continuous
 62
     7
100
AcDbLine
 10
3103.787771395779
 20
-552.5834063792855
 30
0.0
 11
3103.768919161892
 21
-552.5751551891
 31
0.0
  0
LINE
  5
26F42A
102
{ACAD_REACTORS
330
26F48C
102
}
330
A
100
AcDbEntity
  8
1
  6
Continuous
 62
     7
100
AcDbLine
 10
3103.768919161892
 20
-552.5751551891
 30
0.0
 11
3103.642629794217
 21
-552.5580767894417
 31
0.0
  0
LINE
  5
26F42B
102
{ACAD_REACTORS
330
26F48C
102
}
330
A
100
AcDbEntity
  8
1
  6
Continuous
 62
     7
100
AcDbLine
 10
3103.768919161892
 20
-552.5916575694711
 30
0.0
 11
3103.642629794217
 21
-552.5745791698129
 31
0.0
  0
LINE
  5
26F42C
102
{ACAD_REACTORS
330
26F48C
102
}
330
A
100
AcDbEntity
  8
1
  6
Continuous
 62
     7
100
AcDbLine
 10
3103.642629794217
 20
-552.5580767894417
 30
0.0
 11
3103.642629794217
 21
-552.5439776683481
 31
0.0
  0
LINE
  5
26F42D
102
{ACAD_REACTORS
330
26F48C
102
}
330
A
100
AcDbEntity
  8
1
  6
Continuous
 62
     7
100
AcDbLine
 10
3103.768919161892
 20
-552.5751551891
 30
0.0
 11
3103.768919161892
 21
-552.5610560680063
 31
0.0
  0
LINE
  5
26F42E
102
{ACAD_REACTORS
330
26F48C
102
}
330
A
100
AcDbEntity
  8
1
  6
Continuous
 62
     7
100
AcDbLine
 10
3103.787771395779
 20
-552.5528048778207
 30
0.0
 11
3103.623773745632
 21
-552.5357264781625
 31
0.0
  0
LINE
  5
26F42F
102
{ACAD_REACTORS
330
26F48C
102
}
330
A
100
AcDbEntity
  8
1
  6
Continuous
 62
     7
100
AcDbLine
 10
3103.623773745632
 20
-552.5357264781625
 30
0.0
 11
3103.642629794217
 21
-552.5274752879771
 31
0.0
  0
LINE
  5
26F430
102
{ACAD_REACTORS
330
26F48C
102
}
330
A
100
AcDbEntity
  8
1
  6
Continuous
 62
     7
100
AcDbLine
 10
3103.623773745632
 20
-552.5357264781625
 30
0.0
 11
3103.642629794217
 21
-552.5439776683481
 31
0.0
  0
LINE
  5
26F431
102
{ACAD_REACTORS
330
26F48C
102
}
330
A
100
AcDbEntity
  8
1
  6
Continuous
 62
     7
100
AcDbLine
 10
3103.787771395779
 20
-552.5528048778207
 30
0.0
 11
3103.768919161892
 21
-552.5610560680063
 31
0.0
  0
LINE
  5
26F432
102
{ACAD_REACTORS
330
26F48C
102
}
330
A
100
AcDbEntity
  8
1
  6
Continuous
 62
     7
100
AcDbLine
 10
3103.787771395779
 20
-552.5528048778207
 30
0.0
 11
3103.768919161892
 21
-552.5445536876352
 31
0.0
  0
LINE
  5
26F433
102
{ACAD_REACTORS
330
26F48C
102
}
330
A
100
AcDbEntity
  8
1
  6
Continuous
 62
     7
100
AcDbLine
 10
3103.768919161892
 20
-552.5445536876352
 30
0.0
 11
3103.642629794217
 21
-552.5274752879771
 31
0.0
  0
LINE
  5
26F434
102
{ACAD_REACTORS
330
26F48C
102
}
330
A
100
AcDbEntity
  8
1
  6
Continuous
 62
     7
100
AcDbLine
 10
3103.768919161892
 20
-552.5610560680063
 30
0.0
 11
3103.642629794217
 21
-552.5439776683481
 31
0.0
  0
LINE
  5
26F435
102
{ACAD_REACTORS
330
26F48C
102
}
330
A
100
AcDbEntity
  8
1
  6
Continuous
 62
     7
100
AcDbLine
 10
3103.642629794217
 20
-552.5274752879771
 30
0.0
 11
3103.642629794217
 21
-552.5133761668833
 31
0.0
  0
LINE
  5
26F436
102
{ACAD_REACTORS
330
26F48C
102
}
330
A
100
AcDbEntity
  8
1
  6
Continuous
 62
     7
100
AcDbLine
 10
3103.768919161892
 20
-552.5445536876352
 30
0.0
 11
3103.768919161892
 21
-552.5304545665415
 31
0.0
  0
LINE
  5
26F437
102
{ACAD_REACTORS
330
26F48C
102
}
330
A
100
AcDbEntity
  8
1
  6
Continuous
 62
     7
100
AcDbLine
 10
3103.787771395779
 20
-552.5222033763558
 30
0.0
 11
3103.623773745632
 21
-552.5051249766976
 31
0.0
  0
LINE
  5
26F438
102
{ACAD_REACTORS
330
26F48C
102
}
330
A
100
AcDbEntity
  8
1
  6
Continuous
 62
     7
100
AcDbLine
 10
3103.623773745632
 20
-552.5051249766976
 30
0.0
 11
3103.642629794217
 21
-552.4968737865121
 31
0.0
  0
LINE
  5
26F439
102
{ACAD_REACTORS
330
26F48C
102
}
330
A
100
AcDbEntity
  8
1
  6
Continuous
 62
     7
100
AcDbLine
 10
3103.623773745632
 20
-552.5051249766976
 30
0.0
 11
3103.642629794217
 21
-552.5133761668833
 31
0.0
  0
LINE
  5
26F43A
102
{ACAD_REACTORS
330
26F48C
102
}
330
A
100
AcDbEntity
  8
1
  6
Continuous
 62
     7
100
AcDbLine
 10
3103.787771395779
 20
-552.5222033763558
 30
0.0
 11
3103.768919161892
 21
-552.5304545665415
 31
0.0
  0
LINE
  5
26F43B
102
{ACAD_REACTORS
330
26F48C
102
}
330
A
100
AcDbEntity
  8
1
  6
Continuous
 62
     7
100
AcDbLine
 10
3103.787771395779
 20
-552.5222033763558
 30
0.0
 11
3103.768919161892
 21
-552.5139521861702
 31
0.0
  0
LINE
  5
26F43C
102
{ACAD_REACTORS
330
26F48C
102
}
330
A
100
AcDbEntity
  8
1
  6
Continuous
 62
     7
100
AcDbLine
 10
3103.768919161892
 20
-552.5139521861702
 30
0.0
 11
3103.642629794217
 21
-552.4968737865121
 31
0.0
  0
LINE
  5
26F43D
102
{ACAD_REACTORS
330
26F48C
102
}
330
A
100
AcDbEntity
  8
1
  6
Continuous
 62
     7
100
AcDbLine
 10
3103.768919161892
 20
-552.5304545665415
 30
0.0
 11
3103.642629794217
 21
-552.5133761668833
 31
0.0
  0
LINE
  5
26F43E
102
{ACAD_REACTORS
330
26F48C
102
}
330
A
100
AcDbEntity
  8
1
  6
Continuous
 62
     7
100
AcDbLine
 10
3103.642629794217
 20
-552.4968737865121
 30
0.0
 11
3103.642629794217
 21
-552.4827746654184
 31
0.0
  0
LINE
  5
26F43F
102
{ACAD_REACTORS
330
26F48C
102
}
330
A
100
AcDbEntity
  8
1
  6
Continuous
 62
     7
100
AcDbLine
 10
3103.768919161892
 20
-552.5139521861702
 30
0.0
 11
3103.768919161892
 21
-552.4998530650766
 31
0.0
  0
LINE
  5
26F440
102
{ACAD_REACTORS
330
26F48C
102
}
330
A
100
AcDbEntity
  8
1
  6
Continuous
 62
     7
100
AcDbLine
 10
3103.787771395779
 20
-552.4916018748911
 30
0.0
 11
3103.623773745632
 21
-552.4745234752328
 31
0.0
  0
LINE
  5
26F441
102
{ACAD_REACTORS
330
26F48C
102
}
330
A
100
AcDbEntity
  8
1
  6
Continuous
 62
     7
100
AcDbLine
 10
3103.623773745632
 20
-552.4745234752328
 30
0.0
 11
3103.642629794217
 21
-552.4662722850473
 31
0.0
  0
LINE
  5
26F442
102
{ACAD_REACTORS
330
26F48C
102
}
330
A
100
AcDbEntity
  8
1
  6
Continuous
 62
     7
100
AcDbLine
 10
3103.623773745632
 20
-552.4745234752328
 30
0.0
 11
3103.642629794217
 21
-552.4827746654184
 31
0.0
  0
LINE
  5
26F443
102
{ACAD_REACTORS
330
26F48C
102
}
330
A
100
AcDbEntity
  8
1
  6
Continuous
 62
     7
100
AcDbLine
 10
3103.787771395779
 20
-552.4916018748911
 30
0.0
 11
3103.768919161892
 21
-552.4998530650766
 31
0.0
  0
LINE
  5
26F444
102
{ACAD_REACTORS
330
26F48C
102
}
330
A
100
AcDbEntity
  8
1
  6
Continuous
 62
     7
100
AcDbLine
 10
3103.787771395779
 20
-552.4916018748911
 30
0.0
 11
3103.768919161892
 21
-552.4833506847055
 31
0.0
  0
LINE
  5
26F445
102
{ACAD_REACTORS
330
26F48C
102
}
330
A
100
AcDbEntity
  8
1
  6
Continuous
 62
     7
100
AcDbLine
 10
3103.768919161892
 20
-552.4833506847055
 30
0.0
 11
3103.642629794217
 21
-552.4662722850473
 31
0.0
  0
LINE
  5
26F446
102
{ACAD_REACTORS
330
26F48C
102
}
330
A
100
AcDbEntity
  8
1
  6
Continuous
 62
     7
100
AcDbLine
 10
3103.768919161892
 20
-552.4998530650766
 30
0.0
 11
3103.642629794217
 21
-552.4827746654184
 31
0.0
  0
LINE
  5
26F447
102
{ACAD_REACTORS
330
26F48C
102
}
330
A
100
AcDbEntity
  8
1
  6
Continuous
 62
     7
100
AcDbLine
 10
3103.62649743948
 20
-553.0257205272347
 30
0.0
 11
3103.645353488064
 21
-553.0174693370493
 31
0.0
  0
LINE
  5
26F448
102
{ACAD_REACTORS
330
26F48C
102
}
330
A
100
AcDbEntity
  8
1
  6
Continuous
 62
     7
100
AcDbLine
 10
3103.784635714627
 20
-553.0118273997933
 30
0.0
 11
3103.76578348074
 21
-553.020078589979
 31
0.0
  0
LINE
  5
26F449
102
{ACAD_REACTORS
330
26F48C
102
}
330
A
100
AcDbEntity
  8
1
  6
Continuous
 62
     7
100
AcDbLine
 10
3103.784635714627
 20
-553.0118273997933
 30
0.0
 11
3103.768919161892
 21
-553.0035762096077
 31
0.0
  0
LINE
  5
26F44A
102
{ACAD_REACTORS
330
26F48C
102
}
330
A
100
AcDbEntity
  8
1
  6
Continuous
 62
     7
100
AcDbLine
 10
3103.779073886013
 20
-553.0417670512825
 30
0.0
 11
3103.763197115994
 21
-553.0334033275277
 31
0.0
  0
LINE
  5
26F44B
102
{ACAD_REACTORS
330
26F48C
102
}
330
A
100
AcDbEntity
  8
1
  6
Continuous
 62
     7
100
AcDbLine
 10
3103.779073886013
 20
-553.0417670512825
 30
0.0
 11
3103.760168246366
 21
-553.0494956279428
 31
0.0
  0
LINE
  5
26F44C
102
{ACAD_REACTORS
330
26F48C
102
}
330
A
100
AcDbEntity
  8
1
  6
Continuous
 62
     7
100
AcDbLine
 10
3103.763197115994
 20
-553.0334033275277
 30
0.0
 11
3103.765707186795
 21
-553.0200633311899
 31
0.0
  0
LINE
  5
26F44D
102
{ACAD_REACTORS
330
26F48C
102
}
330
A
100
AcDbEntity
  8
1
  6
Continuous
 62
     7
100
AcDbLine
 10
3103.77327554617
 20
-553.0717086101206
 30
0.0
 11
3103.757581881619
 21
-553.0632457042368
 31
0.0
  0
LINE
  5
26F44E
102
{ACAD_REACTORS
330
26F48C
102
}
330
A
100
AcDbEntity
  8
1
  6
Continuous
 62
     7
100
AcDbLine
 10
3103.77327554617
 20
-553.0717086101206
 30
0.0
 11
3103.75455301199
 21
-553.0793380046518
 31
0.0
  0
LINE
  5
26F44F
102
{ACAD_REACTORS
330
26F48C
102
}
330
A
100
AcDbEntity
  8
1
  6
Continuous
 62
     7
100
AcDbLine
 10
3103.760168246366
 20
-553.0494956279428
 30
0.0
 11
3103.757581881619
 21
-553.0632457042368
 31
0.0
  0
LINE
  5
26F450
102
{ACAD_REACTORS
330
26F48C
102
}
330
A
100
AcDbEntity
  8
1
  6
Continuous
 62
     7
100
AcDbLine
 10
3103.75455301199
 20
-553.0793380046518
 30
0.0
 11
3103.656995944119
 21
-553.0793380046518
 31
0.0
  0
LINE
  5
26F451
102
{ACAD_REACTORS
330
26F48C
102
}
330
A
100
AcDbEntity
  8
1
  6
Continuous
 62
     7
100
AcDbLine
 10
3103.62649743948
 20
-553.0257205272347
 30
0.0
 11
3103.648538760281
 21
-553.0344027782112
 31
0.0
  0
LINE
  5
26F452
102
{ACAD_REACTORS
330
26F48C
102
}
330
A
100
AcDbEntity
  8
1
  6
Continuous
 62
     7
100
AcDbLine
 10
3103.631605319119
 20
-553.0570124889047
 30
0.0
 11
3103.651258639431
 21
-553.0488700175912
 31
0.0
  0
LINE
  5
26F453
102
{ACAD_REACTORS
330
26F48C
102
}
330
A
100
AcDbEntity
  8
1
  6
Continuous
 62
     7
100
AcDbLine
 10
3103.631605319119
 20
-553.0570124889047
 30
0.0
 11
3103.654447726345
 21
-553.0658034587532
 31
0.0
  0
LINE
  5
26F454
102
{ACAD_REACTORS
330
26F48C
102
}
330
A
100
AcDbEntity
  8
1
  6
Continuous
 62
     7
100
AcDbLine
 10
3103.654447726345
 20
-553.0658034587532
 30
0.0
 11
3103.656995944119
 21
-553.0793380046518
 31
0.0
  0
LINE
  5
26F455
102
{ACAD_REACTORS
330
26F48C
102
}
330
A
100
AcDbEntity
  8
1
  6
Continuous
 62
     7
100
AcDbLine
 10
3103.648534945583
 20
-553.0344027782112
 30
0.0
 11
3103.651258639431
 21
-553.0488700175912
 31
0.0
  0
LINE
  5
26F456
102
{ACAD_REACTORS
330
26F48C
102
}
330
A
100
AcDbEntity
  8
1
  6
Continuous
 62
     7
100
AcDbLine
 10
3103.645353488064
 20
-553.0174693370493
 30
0.0
 11
3103.642629794217
 21
-553.0030001903208
 31
0.0
  0
LINE
  5
26F457
102
{ACAD_REACTORS
330
26F48C
102
}
330
A
100
AcDbEntity
  8
1
  6
Continuous
 62
     7
100
AcDbLine
 10
3103.787771395779
 20
-552.9506243968637
 30
0.0
 11
3103.726675204373
 21
-552.9442614818245
 31
0.0
  0
LINE
  5
26F458
102
{ACAD_REACTORS
330
26F48C
102
}
330
A
100
AcDbEntity
  8
1
  6
Continuous
 62
     7
100
AcDbLine
 10
3103.768919161892
 20
-552.9588755870492
 30
0.0
 11
3103.725141696072
 21
-552.9529551768929
 31
0.0
  0
LINE
  5
26F459
102
{ACAD_REACTORS
330
26F48C
102
}
330
A
100
AcDbEntity
  8
1
  6
Continuous
 62
     7
100
AcDbLine
 10
3103.623773745632
 20
-552.9335459972055
 30
0.0
 11
3103.713483981228
 21
-552.942888190809
 31
0.0
  0
LINE
  5
26F45A
102
{ACAD_REACTORS
330
26F48C
102
}
330
A
100
AcDbEntity
  8
1
  6
Continuous
 62
     7
100
AcDbLine
 10
3103.642629794217
 20
-552.941797187391
 30
0.0
 11
3103.712026766873
 21
-552.9511813426644
 31
0.0
  0
LINE
  5
26F45B
102
{ACAD_REACTORS
330
26F48C
102
}
330
A
100
AcDbEntity
  8
1
  6
Continuous
 62
     7
100
AcDbLine
 10
3103.727983645534
 20
-552.9368380809457
 30
0.0
 11
3103.768919161892
 21
-552.942373206678
 31
0.0
  0
LINE
  5
26F45C
102
{ACAD_REACTORS
330
26F48C
102
}
330
A
100
AcDbEntity
  8
1
  6
Continuous
 62
     7
100
AcDbLine
 10
3103.714864901638
 20
-552.9350642467172
 30
0.0
 11
3103.642629794217
 21
-552.9252948070201
 31
0.0
  0
LINE
  5
26F45D
102
{ACAD_REACTORS
330
26F48C
102
}
330
A
100
AcDbEntity
  8
1
  6
Continuous
 62
     7
100
AcDbLine
 10
3103.642629794217
 20
-552.9723986888559
 30
0.0
 11
3103.706754855251
 21
-552.9810694957408
 31
0.0
  0
LINE
  5
26F45E
102
{ACAD_REACTORS
330
26F48C
102
}
330
A
100
AcDbEntity
  8
1
  6
Continuous
 62
     7
100
AcDbLine
 10
3103.623773745632
 20
-552.9641474986703
 30
0.0
 11
3103.708189181423
 21
-552.9729384685189
 31
0.0
  0
LINE
  5
26F45F
102
{ACAD_REACTORS
330
26F48C
102
}
330
A
100
AcDbEntity
  8
1
  6
Continuous
 62
     7
100
AcDbLine
 10
3103.642629794217
 20
-552.9558963084848
 30
0.0
 11
3103.709596804715
 21
-552.9649523997934
 31
0.0
  0
LINE
  5
26F460
102
{ACAD_REACTORS
330
26F48C
102
}
330
A
100
AcDbEntity
  8
1
  6
Continuous
 62
     7
100
AcDbLine
 10
3103.768919161892
 20
-552.9729747081431
 30
0.0
 11
3103.722715548611
 21
-552.9667262340219
 31
0.0
  0
LINE
  5
26F461
102
{ACAD_REACTORS
330
26F48C
102
}
330
A
100
AcDbEntity
  8
1
  6
Continuous
 62
     7
100
AcDbLine
 10
3103.787771395779
 20
-552.9812258983286
 30
0.0
 11
3103.721376589871
 21
-552.9743117595346
 31
0.0
  0
LINE
  5
26F462
102
{ACAD_REACTORS
330
26F48C
102
}
330
A
100
AcDbEntity
  8
1
  6
Continuous
 62
     7
100
AcDbLine
 10
3103.768919161892
 20
-552.9894770885142
 30
0.0
 11
3103.719869784451
 21
-552.9828433299691
 31
0.0
  0
LINE
  5
26F463
102
{ACAD_REACTORS
330
26F48C
102
}
330
A
100
AcDbEntity
  8
1
  6
Continuous
 62
     7
100
AcDbLine
 10
3103.642629794217
 20
-552.9864978099495
 30
0.0
 11
3103.704328707791
 21
-552.9948424602182
 31
0.0
  0
LINE
  5
26F464
102
{ACAD_REACTORS
330
26F48C
102
}
330
A
100
AcDbEntity
  8
1
  6
Continuous
 62
     7
100
AcDbLine
 10
3103.623773745632
 20
-552.9947490001351
 30
0.0
 11
3103.70286386404
 21
-553.0031451488167
 31
0.0
  0
LINE
  5
26F465
102
{ACAD_REACTORS
330
26F48C
102
}
330
A
100
AcDbEntity
  8
1
  6
Continuous
 62
     7
100
AcDbLine
 10
3103.642629794217
 20
-553.0030001903208
 30
0.0
 11
3103.701448611355
 21
-553.0111579204233
 31
0.0
  0
LINE
  5
26F466
102
{ACAD_REACTORS
330
26F48C
102
}
330
A
100
AcDbEntity
  8
1
  6
Continuous
 62
     7
100
AcDbLine
 10
3103.645353488064
 20
-553.0174693370493
 30
0.0
 11
3103.69905679617
 21
-553.0247306132943
 31
0.0
  0
LINE
  5
26F467
102
{ACAD_REACTORS
330
26F48C
102
}
330
A
100
AcDbEntity
  8
1
  6
Continuous
 62
     7
100
AcDbLine
 10
3103.763197115994
 20
-553.0334033275277
 30
0.0
 11
3103.712171725369
 21
-553.0265063548715
 31
0.0
  0
LINE
  5
26F468
102
{ACAD_REACTORS
330
26F48C
102
}
330
A
100
AcDbEntity
  8
1
  6
Continuous
 62
     7
100
AcDbLine
 10
3103.76578348074
 20
-553.020078589979
 30
0.0
 11
3103.714559725857
 21
-553.0129756236703
 31
0.0
  0
LINE
  5
26F469
102
{ACAD_REACTORS
330
26F48C
102
}
330
A
100
AcDbEntity
  8
1
  6
Continuous
 62
     7
100
AcDbLine
 10
3103.784635714627
 20
-553.0118273997933
 30
0.0
 11
3103.716047457791
 21
-553.0045451427134
 31
0.0
  0
LINE
  5
26F46A
102
{ACAD_REACTORS
330
26F48C
102
}
330
A
100
AcDbEntity
  8
1
  6
Continuous
 62
     7
100
AcDbLine
 10
3103.768919161892
 20
-553.0035762096077
 30
0.0
 11
3103.71744363699
 21
-552.9966143870981
 31
0.0
  0
LINE
  5
26F46B
102
{ACAD_REACTORS
330
26F48C
102
}
330
A
100
AcDbEntity
  8
1
  6
Continuous
 62
     7
100
AcDbLine
 10
3103.62649743948
 20
-553.0257205272347
 30
0.0
 11
3103.697561434842
 21
-553.0331935191781
 31
0.0
  0
LINE
  5
26F46C
102
{ACAD_REACTORS
330
26F48C
102
}
330
A
100
AcDbEntity
  8
1
  6
Continuous
 62
     7
100
AcDbLine
 10
3103.779073886013
 20
-553.0417670512825
 30
0.0
 11
3103.710748843289
 21
-553.034582068983
 31
0.0
  0
LINE
  5
26F46D
102
{ACAD_REACTORS
330
26F48C
102
}
330
A
100
AcDbEntity
  8
1
  6
Continuous
 62
     7
100
AcDbLine
 10
3103.648538760281
 20
-553.0344027782112
 30
0.0
 11
3103.696211032009
 21
-553.0408496165902
 31
0.0
  0
LINE
  5
26F46E
102
{ACAD_REACTORS
330
26F48C
102
}
330
A
100
AcDbEntity
  8
1
  6
Continuous
 62
     7
100
AcDbLine
 10
3103.760168246366
 20
-553.0494956279428
 30
0.0
 11
3103.709333590603
 21
-553.04262154347
 31
0.0
  0
LINE
  5
26F46F
102
{ACAD_REACTORS
330
26F48C
102
}
330
A
100
AcDbEntity
  8
1
  6
Continuous
 62
     7
100
AcDbLine
 10
3103.757581881619
 20
-553.0632457042368
 30
0.0
 11
3103.706903628446
 21
-553.056392600599
 31
0.0
  0
LINE
  5
26F470
102
{ACAD_REACTORS
330
26F48C
102
}
330
A
100
AcDbEntity
  8
1
  6
Continuous
 62
     7
100
AcDbLine
 10
3103.77327554617
 20
-553.0717086101206
 30
0.0
 11
3103.705442599392
 21
-553.0646724010141
 31
0.0
  0
LINE
  5
26F471
102
{ACAD_REACTORS
330
26F48C
102
}
330
A
100
AcDbEntity
  8
1
  6
Continuous
 62
     7
100
AcDbLine
 10
3103.651258639431
 20
-553.0488700175912
 30
0.0
 11
3103.693784884549
 21
-553.0546187663706
 31
0.0
  0
LINE
  5
26F472
102
{ACAD_REACTORS
330
26F48C
102
}
330
A
100
AcDbEntity
  8
1
  6
Continuous
 62
     7
100
AcDbLine
 10
3103.631605319119
 20
-553.0570124889047
 30
0.0
 11
3103.692251376247
 21
-553.0633029246957
 31
0.0
  0
LINE
  5
26F473
102
{ACAD_REACTORS
330
26F48C
102
}
330
A
100
AcDbEntity
  8
1
  6
Continuous
 62
     7
100
AcDbLine
 10
3103.654447726345
 20
-553.0658034587532
 30
0.0
 11
3103.690942935085
 21
-553.0707377696664
 31
0.0
  0
LINE
  5
26F474
102
{ACAD_REACTORS
330
26F48C
102
}
330
A
100
AcDbEntity
  8
1
  6
Continuous
 62
     7
100
AcDbLine
 10
3103.75455301199
 20
-553.0793380046518
 30
0.0
 11
3103.704061678982
 21
-553.0725116038949
 31
0.0
  0
LINE
  5
26F475
102
{ACAD_REACTORS
330
26F48C
102
}
330
A
100
AcDbEntity
  8
1
  6
Continuous
 62
     7
100
AcDbLine
 10
3103.706903628446
 20
-553.056392600599
 30
0.0
 11
3103.704061678982
 21
-553.0725116038949
 31
0.0
  0
LINE
  5
26F476
102
{ACAD_REACTORS
330
26F48C
102
}
330
A
100
AcDbEntity
  8
1
  6
Continuous
 62
     7
100
AcDbLine
 10
3103.693784884549
 20
-553.0546187663706
 30
0.0
 11
3103.690942935085
 21
-553.0707377696664
 31
0.0
  0
LINE
  5
26F477
102
{ACAD_REACTORS
330
26F48C
102
}
330
A
100
AcDbEntity
  8
1
  6
Continuous
 62
     7
100
AcDbLine
 10
3103.712171725369
 20
-553.0265063548715
 30
0.0
 11
3103.709333590603
 21
-553.04262154347
 31
0.0
  0
LINE
  5
26F478
102
{ACAD_REACTORS
330
26F48C
102
}
330
A
100
AcDbEntity
  8
1
  6
Continuous
 62
     7
100
AcDbLine
 10
3103.69905679617
 20
-553.0247306132943
 30
0.0
 11
3103.696211032009
 21
-553.0408496165902
 31
0.0
  0
LINE
  5
26F479
102
{ACAD_REACTORS
330
26F48C
102
}
330
A
100
AcDbEntity
  8
1
  6
Continuous
 62
     7
100
AcDbLine
 10
3103.71744363699
 20
-552.9966143870981
 30
0.0
 11
3103.714559725857
 21
-553.0129756236703
 31
0.0
  0
LINE
  5
26F47A
102
{ACAD_REACTORS
330
26F48C
102
}
330
A
100
AcDbEntity
  8
1
  6
Continuous
 62
     7
100
AcDbLine
 10
3103.704328707791
 20
-552.9948424602182
 30
0.0
 11
3103.701448611355
 21
-553.0111579204233
 31
0.0
  0
LINE
  5
26F47B
102
{ACAD_REACTORS
330
26F48C
102
}
330
A
100
AcDbEntity
  8
1
  6
Continuous
 62
     7
100
AcDbLine
 10
3103.722715548611
 20
-552.9667262340219
 30
0.0
 11
3103.719869784451
 21
-552.9828433299691
 31
0.0
  0
LINE
  5
26F47C
102
{ACAD_REACTORS
330
26F48C
102
}
330
A
100
AcDbEntity
  8
1
  6
Continuous
 62
     7
100
AcDbLine
 10
3103.725141696072
 20
-552.9529551768929
 30
0.0
 11
3103.727983645534
 21
-552.9368380809457
 31
0.0
  0
LINE
  5
26F47D
102
{ACAD_REACTORS
330
26F48C
102
}
330
A
100
AcDbEntity
  8
1
  6
Continuous
 62
     7
100
AcDbLine
 10
3103.709592990017
 20
-552.9649523997934
 30
0.0
 11
3103.706754855251
 21
-552.9810694957408
 31
0.0
  0
LINE
  5
26F47E
102
{ACAD_REACTORS
330
26F48C
102
}
330
A
100
AcDbEntity
  8
1
  6
Continuous
 62
     7
100
AcDbLine
 10
3103.712026766873
 20
-552.9511813426644
 30
0.0
 11
3103.714864901638
 21
-552.9350642467172
 31
0.0
  0
LINE
  5
26F47F
102
{ACAD_REACTORS
330
26F48C
102
}
330
A
100
AcDbEntity
  8
1
  6
Continuous
 62
     7
100
AcDbLine
 10
3103.642629794217
 20
-552.4293383861215
 30
0.0
 11
3103.768919161892
 21
-552.4293383861215
 31
0.0
  0
LINE
  5
26F480
102
{ACAD_REACTORS
330
26F48C
102
}
330
A
100
AcDbEntity
  8
1
  6
Continuous
 62
     7
100
AcDbLine
 10
3103.642629794217
 20
-552.4662722850473
 30
0.0
 11
3103.642629794217
 21
-552.4293383861215
 31
0.0
  0
LINE
  5
26F481
102
{ACAD_REACTORS
330
26F48C
102
}
330
A
100
AcDbEntity
  8
1
  6
Continuous
 62
     7
100
AcDbLine
 10
3103.768919161892
 20
-552.4833506847055
 30
0.0
 11
3103.768919161892
 21
-552.4293383861215
 31
0.0
  0
LINE
  5
26F482
102
{ACAD_REACTORS
330
26F48C
102
}
330
A
100
AcDbEntity
  8
1
  6
Continuous
 62
     7
100
AcDbLine
 10
3103.642629794217
 20
-552.4293383861215
 30
0.0
 11
3103.548605136013
 21
-552.3379229808481
 31
0.0
  0
ARC
  5
26F483
102
{ACAD_REACTORS
330
26F48C
102
}
330
A
100
AcDbEntity
  8
1
  6
Continuous
 62
     7
100
AcDbCircle
 10
3103.552088987694
 20
-552.3343373796717
 30
0.0
 40
0.0049993757936645
100
AcDbArc
 50
90.0
 51
225.8245919895784
  0
LINE
  5
26F484
102
{ACAD_REACTORS
330
26F48C
102
}
330
A
100
AcDbEntity
  8
1
  6
Continuous
 62
     7
100
AcDbLine
 10
3103.768919161892
 20
-552.4293383861215
 30
0.0
 11
3103.862943820095
 21
-552.3379229808481
 31
0.0
  0
ARC
  5
26F485
102
{ACAD_REACTORS
330
26F48C
102
}
330
A
100
AcDbEntity
  8
1
  6
Continuous
 62
     7
100
AcDbCircle
 10
3103.859454718713
 20
-552.3343395117428
 30
0.0
 40
0.005001507700003
100
AcDbArc
 50
314.2355606039842
 51
90.0
  0
LINE
  5
26F486
102
{ACAD_REACTORS
330
26F48C
102
}
330
A
100
AcDbEntity
  8
1
  6
Continuous
 62
     7
100
AcDbLine
 10
3103.859457186795
 20
-552.3293380046518
 30
0.0
 11
3103.552091769314
 21
-552.3293380046518
 31
0.0
  0
LINE
  5
26F487
102
{ACAD_REACTORS
330
26F48C
102
}
330
A
100
AcDbEntity
  8
1
  6
Continuous
 62
     7
100
AcDbLine
 10
3103.691370181179
 20
-552.3293380046518
 30
0.0
 11
3103.694975070095
 21
-552.4142016673716
 31
0.0
  0
LINE
  5
26F488
102
{ACAD_REACTORS
330
26F48C
102
}
330
A
100
AcDbEntity
  8
1
  6
Continuous
 62
     7
100
AcDbLine
 10
3103.72017877493
 20
-552.3293380046518
 30
0.0
 11
3103.716573886013
 21
-552.4142016673716
 31
0.0
  0
LINE
  5
26F489
102
{ACAD_REACTORS
330
26F48C
102
}
330
A
100
AcDbEntity
  8
1
  6
Continuous
 62
     7
100
AcDbLine
 10
3103.716573886013
 20
-552.4142016673716
 30
0.0
 11
3103.791776827908
 21
-552.3293380046518
 31
0.0
  0
LINE
  5
26F48A
102
{ACAD_REACTORS
330
26F48C
102
}
330
A
100
AcDbEntity
  8
1
  6
Continuous
 62
     7
100
AcDbLine
 10
3103.694975070095
 20
-552.4142016673716
 30
0.0
 11
3103.6197721282
 21
-552.3293380046518
 31
0.0
  0
LINE
  5
26F48B
102
{ACAD_REACTORS
330
26F48C
102
}
330
A
100
AcDbEntity
  8
1
  6
Continuous
 62
     7
100
AcDbLine
 10
3103.716573886013
 20
-552.4142016673716
 30
0.0
 11
3103.694975070095
 21
-552.4142016673716
 31
0.0
  0
ENDSEC
  0
SECTION
  2
OBJECTS
  0
DICTIONARY
  5
19
330
0
100
AcDbDictionary
281
     1
  3
ACAD_BACKGROUND
350
21E378
  3
ACAD_CIP_PREVIOUS_PRODUCT_INFO
350
8FC
  3
ACAD_COLOR
350
8DF
  3
ACAD_DETAILVIEWSTYLE
350
8F8
  3
ACAD_FIELDLIST
350
22A784
  3
ACAD_GROUP
350
1A
  3
ACAD_LAYOUT
350
1E
  3
ACAD_MATERIAL
350
8AD
  3
ACAD_MLEADERSTYLE
350
8F4
  3
ACAD_MLINESTYLE
350
1B
  3
ACAD_PLOTSETTINGS
350
22
  3
ACAD_PLOTSTYLENAME
350
1F
  3
ACAD_POINTCLOUD_COLORMAP_DICT
350
1AD741
  3
ACAD_SCALELIST
350
8E2
  3
ACAD_SECTIONVIEWSTYLE
350
8F6
  3
ACAD_TABLESTYLE
350
8E0
  3
ACAD_VISUALSTYLE
350
8C6
  3
ACAD_WIPEOUT_VARS
350
23
  3
ACDB_RECOMPOSE_DATA
350
26F48E
  3
AcDbVariableDictionary
350
9BC
  3
ASE_INDEX_DICTIONARY
350
22A2D
  0
DICTIONARY
  5
11AE
330
2
100
AcDbDictionary
280
     1
281
     1
  3
ACAD_LAYERFILTERS
360
1EB087
  3
ACAD_LAYERSTATES
360
11AF
  3
ACLYDICTIONARY
360
1EB086
  0
DICTIONARY
  5
EDD
330
14
100
AcDbDictionary
280
     1
281
     1
  3
ADSK_XREC_LAYER_RECONCILED
360
EDE
  0
DICTIONARY
  5
245C61
330
966
100
AcDbDictionary
280
     1
281
     1
  0
DICTIONARY
  5
187404
330
22E2
100
AcDbDictionary
280
     1
281
     1
  0
DICTIONARY
  5
9AF
330
A
100
AcDbDictionary
280
     1
281
     1
  3
ACAD_SORTENTS
360
9377
  0
DICTIONARY
  5
26F2A3
330
26F2A2
100
AcDbDictionary
280
     1
281
     1
  3
AcDbContextDataManager
360
26F2A4
  0
DICTIONARY
  5
26F2A7
330
26F2A6
100
AcDbDictionary
280
     1
281
     1
  3
AcDbContextDataManager
360
26F2A8
  0
DICTIONARY
  5
21E378
102
{ACAD_REACTORS
330
19
102
}
330
19
100
AcDbDictionary
281
     1
  0
XRECORD
  5
8FC
102
{ACAD_REACTORS
330
19
102
}
330
19
100
AcDbXrecord
280
     1
300
ACDLT
300
2023
300

  0
DICTIONARY
  5
8DF
102
{ACAD_REACTORS
330
19
102
}
330
19
100
AcDbDictionary
281
     1
  3
PANTONE+ Solid Uncoated$PANTONE 2945 U
350
E1A00
  0
DICTIONARY
  5
8F8
102
{ACAD_REACTORS
330
19
102
}
330
19
100
AcDbDictionary
281
     1
  3
Imperial24
350
8F9
  0
FIELDLIST
  5
22A784
102
{ACAD_REACTORS
330
19
102
}
330
19
100
AcDbIdSet
 90
        0
100
AcDbFieldList
  0
DICTIONARY
  5
1A
102
{ACAD_REACTORS
330
19
102
}
330
19
100
AcDbDictionary
281
     1
  3
*A1
350
26F48C
  0
DICTIONARY
  5
1E
102
{ACAD_REACTORS
330
19
102
}
330
19
100
AcDbDictionary
281
     1
  3
Layout1
350
26E9FB
  3
Model
350
20
  0
DICTIONARY
  5
8AD
102
{ACAD_REACTORS
330
19
102
}
330
19
100
AcDbDictionary
281
     1
  3
ByBlock
350
8B6
  3
ByLayer
350
8AE
  3
Global
350
8BE
  0
DICTIONARY
  5
8F4
102
{ACAD_REACTORS
330
19
102
}
330
19
100
AcDbDictionary
281
     1
  3
Standard
350
8F5
  0
DICTIONARY
  5
1B
102
{ACAD_REACTORS
330
19
102
}
330
19
100
AcDbDictionary
281
     1
  3
Standard
350
1C
  0
DICTIONARY
  5
22
102
{ACAD_REACTORS
330
19
102
}
330
19
100
AcDbDictionary
281
     1
  0
ACDBDICTIONARYWDFLT
  5
1F
102
{ACAD_REACTORS
330
19
102
}
330
19
100
AcDbDictionary
281
     1
  3
Normal
350
1D
100
AcDbDictionaryWithDefault
340
1D
  0
DICTIONARY
  5
1AD741
102
{ACAD_REACTORS
330
19
102
}
330
19
100
AcDbDictionary
281
     1
  3
ACAD_POINTCLOUD_COLORMAP
350
1AD742
  0
DICTIONARY
  5
8E2
102
{ACAD_REACTORS
330
19
102
}
330
19
100
AcDbDictionary
281
     1
  3
A0
350
8E3
  3
A1
350
8E4
  3
A2
350
8E5
  3
A3
350
8E6
  3
A4
350
8E7
  3
A5
350
8E8
  3
A6
350
8E9
  3
A7
350
8EA
  3
A8
350
8EB
  3
A9
350
8EC
  3
B0
350
8ED
  3
B1
350
8EE
  3
B2
350
8EF
  3
B3
350
8F0
  3
B4
350
8F1
  3
B5
350
8F2
  3
B6
350
8F3
  0
DICTIONARY
  5
8F6
102
{ACAD_REACTORS
330
19
102
}
330
19
100
AcDbDictionary
281
     1
  3
Imperial24
350
8F7
  0
DICTIONARY
  5
8E0
102
{ACAD_REACTORS
330
19
102
}
330
19
100
AcDbDictionary
281
     1
  3
Standard
350
8E1
  0
DICTIONARY
  5
8C6
102
{ACAD_REACTORS
330
19
102
}
330
19
100
AcDbDictionary
281
     1
  3
2dWireframe
350
8CC
  3
Basic
350
8CB
  3
Brighten
350
8D2
  3
ColorChange
350
8D6
  3
Conceptual
350
8CF
  3
Dim
350
8D1
  3
EdgeColorOff
350
8DE
  3
Facepattern
350
8D5
  3
Flat
350
8C7
  3
FlatWithEdges
350
8C8
  3
Gouraud
350
8C9
  3
GouraudWithEdges
350
8CA
  3
Hidden
350
8CE
  3
JitterOff
350
8DC
  3
Linepattern
350
8D4
  3
OverhangOff
350
8DD
  3
Realistic
350
8D0
  3
Shaded
350
8DB
  3
Shaded with edges
350
8DA
  3
Shades of Gray
350
8D7
  3
Sketchy
350
8D8
  3
Thicken
350
8D3
  3
Wireframe
350
8CD
  3
X-Ray
350
8D9
  0
WIPEOUTVARIABLES
  5
23
330
19
100
AcDbWipeoutVariables
 70
     1
  0
XRECORD
  5
26F48E
102
{ACAD_REACTORS
330
19
102
}
330
19
100
AcDbXrecord
280
     1
 90
        1
330
8E1
  0
DICTIONARY
  5
9BC
102
{ACAD_REACTORS
330
19
102
}
330
19
100
AcDbDictionary
281
     1
  3
CANNOSCALE
350
168B
  3
CMLEADERSTYLE
350
1687
  3
CTABLESTYLE
350
1686
  3
CVIEWDETAILSTYLE
350
1688
  3
CVIEWSECTIONSTYLE
350
1689
  3
DIMLAYER
350
185035
  3
EXPORTMODELSPACE
350
249D37
  3
HPCOLOR
350
FB9E
  3
HPLAYER
350
1A166A
  3
HPTRANSPARENCY
350
16B887
  3
LAYEREVAL
350
168D
  3
LAYERNOTIFY
350
168E
  3
LIGHTINGUNITS
350
168C
  3
MSLTSCALE
350
168A
  3
TEXTJUSTIFY
350
BCAE
  0
DICTIONARY
  5
22A2D
102
{ACAD_REACTORS
330
19
102
}
330
19
100
AcDbDictionary
281
     1
  3
ASEBlockHierarchyIndexRecord
350
22A2E
1001
DCO15
1040
1822035351.0
  0
DICTIONARY
  5
1EB087
102
{ACAD_REACTORS
330
11AE
102
}
330
11AE
100
AcDbDictionary
281
     1
  0
DICTIONARY
  5
11AF
102
{ACAD_REACTORS
330
11AE
102
}
330
11AE
100
AcDbDictionary
281
     1
  0
DICTIONARY
  5
1EB086
102
{ACAD_REACTORS
330
11AE
102
}
330
11AE
100
AcDbDictionary
281
     1
1001
ACAD
1000
<All
  0
XRECORD
  5
EDE
102
{ACAD_REACTORS
330
EDD
102
}
330
EDD
100
AcDbXrecord
280
     1
290
     1
  0
SORTENTSTABLE
  5
9377
102
{ACAD_REACTORS
330
9AF
102
}
330
9AF
100
AcDbSortentsTable
330
A
  0
DICTIONARY
  5
26F2A4
102
{ACAD_REACTORS
330
26F2A3
102
}
330
26F2A3
100
AcDbDictionary
281
     1
  3
ACDB_ANNOTATIONSCALES
350
26F2A5
  0
DICTIONARY
  5
26F2A8
102
{ACAD_REACTORS
330
26F2A7
102
}
330
26F2A7
100
AcDbDictionary
281
     1
  3
ACDB_ANNOTATIONSCALES
350
26F2A9
  0
DBCOLOR
  5
E1A00
102
{ACAD_REACTORS
330
8DF
102
}
330
8DF
100
AcDbColor
 62
   157
420
  2709644
430
PANTONE+ Solid Uncoated$PANTONE 2945 U
  0
ACDBDETAILVIEWSTYLE
  5
8F9
102
{ACAD_REACTORS
330
8F8
102
}
330
8F8
100
AcDbModelDocViewStyle
 70
     0
  3
Imperial24
290
     0
300
Imperial24
 90
        0
100
AcDbDetailViewStyle
 70
     0
 71
     0
 90
        3
 71
     1
340
17
 62
   256
 40
0.24
340
0
 62
   256
 40
0.24
300

 40
0.36
280
     3
 71
     2
340
13
 90
       25
 62
   256
 71
     3
340
17
 62
   256
 40
0.24
 90
        1
 40
0.75
 90
        1
300
%<\AcVar ViewType \f "%tc1">% %<\AcVar ViewDetailId>%\PSCALE %<\AcVar ViewScale \f "%sn">%
 71
     4
340
13
 90
       25
 62
   256
340
13
 90
       25
 62
   256
280
     0
  0
GROUP
  5
26F48C
102
{ACAD_REACTORS
330
1A
102
}
330
1A
100
AcDbGroup
300

 70
     1
 71
     1
340
26F48B
340
26F48A
340
26F489
340
26F488
340
26F487
340
26F486
340
26F485
340
26F484
340
26F483
340
26F482
340
26F481
340
26F480
340
26F47F
340
26F47E
340
26F47D
340
26F47C
340
26F47B
340
26F47A
340
26F479
340
26F478
340
26F477
340
26F476
340
26F475
340
26F474
340
26F473
340
26F472
340
26F471
340
26F470
340
26F46F
340
26F46E
340
26F46D
340
26F46C
340
26F46B
340
26F46A
340
26F469
340
26F468
340
26F467
340
26F466
340
26F465
340
26F464
340
26F463
340
26F462
340
26F461
340
26F460
340
26F45F
340
26F45E
340
26F45D
340
26F45C
340
26F45B
340
26F45A
340
26F459
340
26F458
340
26F457
340
26F456
340
26F455
340
26F454
340
26F453
340
26F452
340
26F451
340
26F450
340
26F44F
340
26F44E
340
26F44D
340
26F44C
340
26F44B
340
26F44A
340
26F449
340
26F448
340
26F447
340
26F446
340
26F445
340
26F444
340
26F443
340
26F442
340
26F441
340
26F440
340
26F43F
340
26F43E
340
26F43D
340
26F43C
340
26F43B
340
26F43A
340
26F439
340
26F438
340
26F437
340
26F436
340
26F435
340
26F434
340
26F433
340
26F432
340
26F431
340
26F430
340
26F42F
340
26F42E
340
26F42D
340
26F42C
340
26F42B
340
26F42A
340
26F429
340
26F428
340
26F427
340
26F426
340
26F425
340
26F424
340
26F423
340
26F422
340
26F421
340
26F420
340
26F41F
340
26F41E
340
26F41D
340
26F41C
340
26F41B
340
26F41A
340
26F419
340
26F418
340
26F417
340
26F416
340
26F415
340
26F414
340
26F413
340
26F412
340
26F411
340
26F410
340
26F40F
340
26F40E
340
26F40D
340
26F40C
340
26F40B
340
26F40A
340
26F409
340
26F408
340
26F407
340
26F406
340
26F405
340
26F404
340
26F403
340
26F402
340
26F401
340
26F400
340
26F3FF
340
26F3FE
340
26F3FD
340
26F3FC
340
26F3FB
340
26F3FA
340
26F3F9
340
26F3F8
340
26F3F7
340
26F3F6
340
26F3F5
340
26F3F4
340
26F3F3
340
26F3F2
340
26F3F1
340
26F3F0
340
26F3EF
340
26F3EE
340
26F3ED
340
26F3EC
340
26F3EB
340
26F3EA
340
26F3E9
340
26F3E8
340
26F3E7
340
26F3E6
340
26F3E5
340
26F3E4
340
26F3E3
340
26F3E2
340
26F3E1
340
26F3E0
340
26F3DF
340
26F3DE
340
26F3DD
340
26F3DC
340
26F3DB
340
26F3DA
340
26F3D9
340
26F3D8
340
26F3D7
340
26F3D6
340
26F3D5
340
26F3D4
340
26F3D3
340
26F3D2
340
26F3D1
340
26F3D0
340
26F3CF
340
26F3CE
340
26F3CD
340
26F3CC
340
26F3CB
340
26F3CA
340
26F3C9
340
26F3C8
340
26F3C7
340
26F3C6
340
26F3C5
340
26F3C4
340
26F3C3
340
26F3C2
340
26F3C1
340
26F3C0
340
26F3BF
340
26F3BE
340
26F3BD
340
26F3BC
340
26F3BB
340
26F3BA
340
26F3B9
340
26F3B8
340
26F3B7
340
26F3B6
340
26F3B5
340
26F3B4
340
26F3B3
340
26F3B2
  0
LAYOUT
  5
26E9FB
102
{ACAD_REACTORS
330
1E
102
}
330
1E
100
AcDbPlotSettings
  1

  2
HP Color LaserJet Pro M454
  4

  6

 40
0.0
 41
0.0
 42
0.0
 43
0.0
 44
0.0
 45
0.0
 46
0.0
 47
0.0
 48
0.0
 49
0.0
140
0.0
141
0.0
142
1.0
143
1.0
 70
   688
 72
     0
 73
     0
 74
     5
  7

 75
    16
147
1.0
 76
     0
 77
     2
 78
   300
148
0.0
149
0.0
100
AcDbLayout
  1
Layout1
 70
     1
 71
     1
 10
0.0
 20
0.0
 11
12.0
 21
9.0
 12
0.0
 22
0.0
 32
0.0
 14
0.0
 24
0.0
 34
0.0
 15
0.0
 25
0.0
 35
0.0
146
0.0
 13
0.0
 23
0.0
 33
0.0
 16
1.0
 26
0.0
 36
0.0
 17
0.0
 27
1.0
 37
0.0
 76
     0
330
26E9FA
  0
LAYOUT
  5
20
102
{ACAD_XDICTIONARY
360
249D38
102
}
102
{ACAD_REACTORS
330
1E
102
}
330
1E
100
AcDbPlotSettings
  1

  2
HP ColorLaserJet M253-M254
  4
Letter
  6

 40
4.233333110809326
 41
4.23333740234375
 42
4.23333740234375
 43
4.23333740234375
 44
215.9000091552734
 45
279.3999938964844
 46
0.0
 47
1.245087483350765
 48
6389.240988895313
 49
-12797.21870763758
140
6515.52495177432
141
-12699.63564541289
142
1.0
143
11.94894608905357
 70
 11444
 72
     0
 73
     1
 74
     4
  7
acadlt.ctb
 75
     0
147
0.0836893892186944
 76
     0
 77
     2
 78
   300
148
-162286.7211179409
149
325049.3551739945
100
AcDbLayout
  1
Model
 70
     0
 71
     0
 10
0.0
 20
0.0
 11
0.0
 21
0.0
 12
0.0
 22
0.0
 32
0.0
 14
0.0
 24
0.0
 34
0.0
 15
0.0
 25
0.0
 35
0.0
146
0.0
 13
0.0
 23
0.0
 33
0.0
 16
0.0
 26
0.0
 36
0.0
 17
0.0
 27
0.0
 37
0.0
 76
     0
330
A
331
15
1001
ACAD_PSEXT
1000
HP ColorLaserJet M253-M254
1000
HP ColorLaserJet M253-M254 PCL-6 (V4)
1000
USB001
1000

1070
     0
  0
MATERIAL
  5
8B6
102
{ACAD_XDICTIONARY
360
8B7
102
}
102
{ACAD_REACTORS
330
8AD
102
}
330
8AD
100
AcDbMaterial
  1
ByBlock
 72
     0
 43
0.0208333333333333
 43
0.0
 43
0.0
 43
0.0
 43
0.0
 43
0.0208333333333333
 43
0.0
 43
0.0
 43
0.0
 43
0.0
 43
1.0
 43
0.0
 43
0.0
 43
0.0
 43
0.0
 43
1.0
 77
     0
 47
0.0208333333333333
 47
0.0
 47
0.0
 47
0.0
 47
0.0
 47
0.0208333333333333
 47
0.0
 47
0.0
 47
0.0
 47
0.0
 47
1.0
 47
0.0
 47
0.0
 47
0.0
 47
0.0
 47
1.0
171
     0
 49
0.0208333333333333
 49
0.0
 49
0.0
 49
0.0
 49
0.0
 49
0.0208333333333333
 49
0.0
 49
0.0
 49
0.0
 49
0.0
 49
1.0
 49
0.0
 49
0.0
 49
0.0
 49
0.0
 49
1.0
175
     0
142
0.0208333333333333
142
0.0
142
0.0
142
0.0
142
0.0
142
0.0208333333333333
142
0.0
142
0.0
142
0.0
142
0.0
142
1.0
142
0.0
142
0.0
142
0.0
142
0.0
142
1.0
179
     0
144
0.0208333333333333
144
0.0
144
0.0
144
0.0
144
0.0
144
0.0208333333333333
144
0.0
144
0.0
144
0.0
144
0.0
144
1.0
144
0.0
144
0.0
144
0.0
144
0.0
144
1.0
147
0.0208333333333333
147
0.0
147
0.0
147
0.0
147
0.0
147
0.0208333333333333
147
0.0
147
0.0
147
0.0
147
0.0
147
1.0
147
0.0
147
0.0
147
0.0
147
0.0
147
1.0
  0
MATERIAL
  5
8AE
102
{ACAD_XDICTIONARY
360
8AF
102
}
102
{ACAD_REACTORS
330
8AD
102
}
330
8AD
100
AcDbMaterial
  1
ByLayer
 72
     0
 43
0.0208333333333333
 43
0.0
 43
0.0
 43
0.0
 43
0.0
 43
0.0208333333333333
 43
0.0
 43
0.0
 43
0.0
 43
0.0
 43
1.0
 43
0.0
 43
0.0
 43
0.0
 43
0.0
 43
1.0
 77
     0
 47
0.0208333333333333
 47
0.0
 47
0.0
 47
0.0
 47
0.0
 47
0.0208333333333333
 47
0.0
 47
0.0
 47
0.0
 47
0.0
 47
1.0
 47
0.0
 47
0.0
 47
0.0
 47
0.0
 47
1.0
171
     0
 49
0.0208333333333333
 49
0.0
 49
0.0
 49
0.0
 49
0.0
 49
0.0208333333333333
 49
0.0
 49
0.0
 49
0.0
 49
0.0
 49
1.0
 49
0.0
 49
0.0
 49
0.0
 49
0.0
 49
1.0
175
     0
142
0.0208333333333333
142
0.0
142
0.0
142
0.0
142
0.0
142
0.0208333333333333
142
0.0
142
0.0
142
0.0
142
0.0
142
1.0
142
0.0
142
0.0
142
0.0
142
0.0
142
1.0
179
     0
144
0.0208333333333333
144
0.0
144
0.0
144
0.0
144
0.0
144
0.0208333333333333
144
0.0
144
0.0
144
0.0
144
0.0
144
1.0
144
0.0
144
0.0
144
0.0
144
0.0
144
1.0
147
0.0208333333333333
147
0.0
147
0.0
147
0.0
147
0.0
147
0.0208333333333333
147
0.0
147
0.0
147
0.0
147
0.0
147
1.0
147
0.0
147
0.0
147
0.0
147
0.0
147
1.0
  0
MATERIAL
  5
8BE
102
{ACAD_XDICTIONARY
360
8BF
102
}
102
{ACAD_REACTORS
330
8AD
102
}
330
8AD
100
AcDbMaterial
  1
Global
 72
     0
 43
0.0208333333333333
 43
0.0
 43
0.0
 43
0.0
 43
0.0
 43
0.0208333333333333
 43
0.0
 43
0.0
 43
0.0
 43
0.0
 43
1.0
 43
0.0
 43
0.0
 43
0.0
 43
0.0
 43
1.0
 77
     0
 47
0.0208333333333333
 47
0.0
 47
0.0
 47
0.0
 47
0.0
 47
0.0208333333333333
 47
0.0
 47
0.0
 47
0.0
 47
0.0
 47
1.0
 47
0.0
 47
0.0
 47
0.0
 47
0.0
 47
1.0
171
     0
 49
0.0208333333333333
 49
0.0
 49
0.0
 49
0.0
 49
0.0
 49
0.0208333333333333
 49
0.0
 49
0.0
 49
0.0
 49
0.0
 49
1.0
 49
0.0
 49
0.0
 49
0.0
 49
0.0
 49
1.0
175
     0
142
0.0208333333333333
142
0.0
142
0.0
142
0.0
142
0.0
142
0.0208333333333333
142
0.0
142
0.0
142
0.0
142
0.0
142
1.0
142
0.0
142
0.0
142
0.0
142
0.0
142
1.0
179
     0
144
0.0208333333333333
144
0.0
144
0.0
144
0.0
144
0.0
144
0.0208333333333333
144
0.0
144
0.0
144
0.0
144
0.0
144
1.0
144
0.0
144
0.0
144
0.0
144
0.0
144
1.0
147
0.0208333333333333
147
0.0
147
0.0
147
0.0
147
0.0
147
0.0208333333333333
147
0.0
147
0.0
147
0.0
147
0.0
147
1.0
147
0.0
147
0.0
147
0.0
147
0.0
147
1.0
  0
MLEADERSTYLE
  5
8F5
102
{ACAD_REACTORS
330
8F4
102
}
330
8F4
100
AcDbMLeaderStyle
179
     2
170
     2
171
     1
172
     0
 90
        2
 40
0.0
 41
0.0
173
     1
 91
-1073741824
340
12
 92
       -1
290
     1
 42
1.0
291
     1
 43
1.0
  3
Standard
 44
0.625
300

342
1897EC
174
     1
178
     1
175
     1
176
     0
 93
-1073741824
 45
2.0
292
     0
297
     0
 46
0.18
 94
-1056964608
 47
1.0
 49
1.0
140
1.0
293
     1
141
0.0
294
     1
177
     0
142
1.0
295
     0
296
     0
143
0.5
271
     0
272
     9
273
     9
298
     1
  0
MLINESTYLE
  5
1C
102
{ACAD_REACTORS
330
1B
102
}
330
1B
100
AcDbMlineStyle
  2
STANDARD
 70
     0
  3

 62
     0
 51
90.0
 52
90.0
 71
     2
 49
0.5
 62
   256
  6
BYLAYER
 49
-0.5
 62
   256
  6
BYLAYER
  0
ACDBPLACEHOLDER
  5
1D
102
{ACAD_REACTORS
330
1F
102
}
330
1F
  0
ACDBPOINTCLOUDCOLORMAP
  5
1AD742
102
{ACAD_REACTORS
330
1AD741
102
}
330
1AD741
100
AcDbPointCloudColorMap
 70
     4
  1
C0A3838B-81E3-4506-B908-13ECF523DB68
  1
6DFAB669-B096-4842-9F90-F23CBDD9E410
  1
8AF59545-D22F-46B7-923C-912F71ED57DE
 90
        7
  1
46B3A5C6-4029-4D50-90D3-C49ADB0A2B45
 70
     1
 90
        8
 91
-1040138241
290
     1
 91
-1040155483
290
     1
 91
-1040162945
290
     1
 91
-1040172724
290
     1
 91
-1040177588
290
     1
 91
-1040182452
290
     1
 91
-1040187316
290
     1
 91
-1040187354
290
     1
  1
Hydro
  1
655FCCB9-2DB2-40BC-86BB-A513D3DF3FEE
 70
     1
 90
        6
 91
-1023410177
290
     1
 91
-1026765620
290
     1
 91
-1030121063
290
     1
 91
-1033476506
290
     1
 91
-1036831949
290
     1
 91
-1040187392
290
     1
  1
Grayscale
  1
6DFAB669-B096-4842-9F90-F23CBDD9E410
 70
     1
 90
        5
 91
-1023410232
290
     1
 91
-1024403562
290
     1
 91
-1025396892
290
     1
 91
-1026390222
290
     1
 91
-1027383552
290
     1
  1
Earth
  1
9B45EA40-176A-46B5-9470-1FA6A7880EE3
 70
     1
 90
        5
 91
-1040187137
290
     1
 91
-1040187227
290
     1
 91
-1040187265
290
     1
 91
-1040187316
290
     1
 91
-1040187354
290
     1
  1
Blues
  1
B5E88F37-A921-45DF-9987-B979CE516EF3
 70
     1
 90
        5
 91
-1040122112
290
     1
 91
-1040145152
290
     1
 91
-1040154880
290
     1
 91
-1040167936
290
     1
 91
-1040177664
290
     1
  1
Greens
  1
C0A3838B-81E3-4506-B908-13ECF523DB68
 70
     1
 90
        6
 91
-1023475457
290
     1
 91
-1040187137
290
     1
 91
-1040121857
290
     1
 91
-1040122112
290
     1
 91
-1023410432
290
     1
 91
-1023475712
290
     1
  1
Spectrum
  1
E247D320-B4DE-471F-8E5F-B848819BF6F6
 70
     1
 90
        5
 91
-1023475712
290
     1
 91
-1029373952
290
     1
 91
-1031864320
290
     1
 91
-1035206656
290
     1
 91
-1037697024
290
     1
  1
Reds
 90
        1
  1
8AF59545-D22F-46B7-923C-912F71ED57DE
 70
     1
 90
      256
 91
-1030121063
290
     1
 91
-1030121063
290
     1
 91
-1031840000
290
     1
 91
-1032018688
290
     1
 91
-1034771200
290
     1
 91
-1037458176
290
     1
 91
-1023426816
290
     1
 91
-1027669761
290
     1
 91
-1023442945
290
     1
 91
-1040138241
290
     1
 91
-1030121063
290
     1
 91
-1030121063
290
     1
 91
-1036831949
290
     1
 91
-1030121063
290
     1
 91
-1030121063
290
     1
 91
-1030121063
290
     1
 91
-1030121063
290
     1
 91
-1030121063
290
     1
 91
-1030121063
290
     1
 91
-1030121063
290
     1
 91
-1030121063
290
     1
 91
-1030121063
290
     1
 91
-1030121063
290
     1
 91
-1030121063
290
     1
 91
-1030121063
290
     1
 91
-1030121063
290
     1
 91
-1030121063
290
     1
 91
-1030121063
290
     1
 91
-1030121063
290
     1
 91
-1030121063
290
     1
 91
-1030121063
290
     1
 91
-1030121063
290
     1
 91
-1030121063
290
     1
 91
-1030121063
290
     1
 91
-1030121063
290
     1
 91
-1030121063
290
     1
 91
-1030121063
290
     1
 91
-1030121063
290
     1
 91
-1030121063
290
     1
 91
-1030121063
290
     1
 91
-1030121063
290
     1
 91
-1030121063
290
     1
 91
-1030121063
290
     1
 91
-1030121063
290
     1
 91
-1030121063
290
     1
 91
-1030121063
290
     1
 91
-1030121063
290
     1
 91
-1030121063
290
     1
 91
-1030121063
290
     1
 91
-1030121063
290
     1
 91
-1030121063
290
     1
 91
-1030121063
290
     1
 91
-1030121063
290
     1
 91
-1030121063
290
     1
 91
-1030121063
290
     1
 91
-1030121063
290
     1
 91
-1030121063
290
     1
 91
-1030121063
290
     1
 91
-1030121063
290
     1
 91
-1030121063
290
     1
 91
-1030121063
290
     1
 91
-1030121063
290
     1
 91
-1030121063
290
     1
 91
-1030121063
290
     1
 91
-1030121063
290
     1
 91
-1030121063
290
     1
 91
-1030121063
290
     1
 91
-1030121063
290
     1
 91
-1030121063
290
     1
 91
-1030121063
290
     1
 91
-1030121063
290
     1
 91
-1030121063
290
     1
 91
-1030121063
290
     1
 91
-1030121063
290
     1
 91
-1030121063
290
     1
 91
-1030121063
290
     1
 91
-1030121063
290
     1
 91
-1030121063
290
     1
 91
-1030121063
290
     1
 91
-1030121063
290
     1
 91
-1030121063
290
     1
 91
-1030121063
290
     1
 91
-1030121063
290
     1
 91
-1030121063
290
     1
 91
-1030121063
290
     1
 91
-1030121063
290
     1
 91
-1030121063
290
     1
 91
-1030121063
290
     1
 91
-1030121063
290
     1
 91
-1030121063
290
     1
 91
-1030121063
290
     1
 91
-1030121063
290
     1
 91
-1030121063
290
     1
 91
-1030121063
290
     1
 91
-1030121063
290
     1
 91
-1030121063
290
     1
 91
-1030121063
290
     1
 91
-1030121063
290
     1
 91
-1030121063
290
     1
 91
-1030121063
290
     1
 91
-1030121063
290
     1
 91
-1030121063
290
     1
 91
-1030121063
290
     1
 91
-1030121063
290
     1
 91
-1030121063
290
     1
 91
-1030121063
290
     1
 91
-1030121063
290
     1
 91
-1030121063
290
     1
 91
-1030121063
290
     1
 91
-1030121063
290
     1
 91
-1030121063
290
     1
 91
-1030121063
290
     1
 91
-1030121063
290
     1
 91
-1030121063
290
     1
 91
-1030121063
290
     1
 91
-1030121063
290
     1
 91
-1030121063
290
     1
 91
-1030121063
290
     1
 91
-1030121063
290
     1
 91
-1030121063
290
     1
 91
-1030121063
290
     1
 91
-1030121063
290
     1
 91
-1030121063
290
     1
 91
-1030121063
290
     1
 91
-1030121063
290
     1
 91
-1030121063
290
     1
 91
-1030121063
290
     1
 91
-1030121063
290
     1
 91
-1030121063
290
     1
 91
-1030121063
290
     1
 91
-1030121063
290
     1
 91
-1030121063
290
     1
 91
-1030121063
290
     1
 91
-1030121063
290
     1
 91
-1030121063
290
     1
 91
-1030121063
290
     1
 91
-1030121063
290
     1
 91
-1030121063
290
     1
 91
-1030121063
290
     1
 91
-1030121063
290
     1
 91
-1030121063
290
     1
 91
-1030121063
290
     1
 91
-1030121063
290
     1
 91
-1030121063
290
     1
 91
-1030121063
290
     1
 91
-1030121063
290
     1
 91
-1030121063
290
     1
 91
-1030121063
290
     1
 91
-1030121063
290
     1
 91
-1030121063
290
     1
 91
-1030121063
290
     1
 91
-1030121063
290
     1
 91
-1030121063
290
     1
 91
-1030121063
290
     1
 91
-1030121063
290
     1
 91
-1030121063
290
     1
 91
-1030121063
290
     1
 91
-1030121063
290
     1
 91
-1030121063
290
     1
 91
-1030121063
290
     1
 91
-1030121063
290
     1
 91
-1030121063
290
     1
 91
-1030121063
290
     1
 91
-1030121063
290
     1
 91
-1030121063
290
     1
 91
-1030121063
290
     1
 91
-1030121063
290
     1
 91
-1030121063
290
     1
 91
-1030121063
290
     1
 91
-1030121063
290
     1
 91
-1030121063
290
     1
 91
-1030121063
290
     1
 91
-1030121063
290
     1
 91
-1030121063
290
     1
 91
-1030121063
290
     1
 91
-1030121063
290
     1
 91
-1030121063
290
     1
 91
-1030121063
290
     1
 91
-1030121063
290
     1
 91
-1030121063
290
     1
 91
-1030121063
290
     1
 91
-1030121063
290
     1
 91
-1030121063
290
     1
 91
-1030121063
290
     1
 91
-1030121063
290
     1
 91
-1030121063
290
     1
 91
-1030121063
290
     1
 91
-1030121063
290
     1
 91
-1030121063
290
     1
 91
-1030121063
290
     1
 91
-1030121063
290
     1
 91
-1030121063
290
     1
 91
-1030121063
290
     1
 91
-1030121063
290
     1
 91
-1030121063
290
     1
 91
-1030121063
290
     1
 91
-1030121063
290
     1
 91
-1030121063
290
     1
 91
-1030121063
290
     1
 91
-1030121063
290
     1
 91
-1030121063
290
     1
 91
-1030121063
290
     1
 91
-1030121063
290
     1
 91
-1030121063
290
     1
 91
-1030121063
290
     1
 91
-1030121063
290
     1
 91
-1030121063
290
     1
 91
-1030121063
290
     1
 91
-1030121063
290
     1
 91
-1030121063
290
     1
 91
-1030121063
290
     1
 91
-1030121063
290
     1
 91
-1030121063
290
     1
 91
-1030121063
290
     1
 91
-1030121063
290
     1
 91
-1030121063
290
     1
 91
-1030121063
290
     1
 91
-1030121063
290
     1
 91
-1030121063
290
     1
 91
-1030121063
290
     1
 91
-1030121063
290
     1
 91
-1030121063
290
     1
 91
-1030121063
290
     1
 91
-1030121063
290
     1
 91
-1030121063
290
     1
 91
-1030121063
290
     1
 91
-1030121063
290
     1
 91
-1030121063
290
     1
 91
-1030121063
290
     1
 91
-1030121063
290
     1
 91
-1030121063
290
     1
 91
-1030121063
290
     1
 91
-1030121063
290
     1
 91
-1030121063
290
     1
 91
-1030121063
290
     1
 91
-1030121063
290
     1
 91
-1030121063
290
     1
 91
-1030121063
290
     1
 91
-1030121063
290
     1
 91
-1030121063
290
     1
 91
-1030121063
290
     1
 91
-1030121063
290
     1
 91
-1030121063
290
     1
 91
-1030121063
290
     1
 91
-1030121063
290
     1
 91
-1030121063
290
     1
 91
-1030121063
290
     1
 91
-1030121063
290
     1
 91
-1030121063
290
     1
 91
-1030121063
290
     1
 91
-1030121063
290
     1
 91
-1030121063
290
     1
 91
-1030121063
290
     1
 91
-1030121063
290
     1
 91
-1030121063
290
     1
 91
-1030121063
290
     1
  1
LIDAR Classifications
  0
SCALE
  5
8E3
102
{ACAD_REACTORS
330
8E2
102
}
330
8E2
100
AcDbScale
 70
     0
300
1:1
140
1.0
141
1.0
290
     1
  0
SCALE
  5
8E4
102
{ACAD_REACTORS
330
8E2
102
}
330
8E2
100
AcDbScale
 70
     0
300
1/128" = 1'-0"
140
0.0078125
141
12.0
290
     0
  0
SCALE
  5
8E5
102
{ACAD_REACTORS
330
8E2
102
}
330
8E2
100
AcDbScale
 70
     0
300
1/64" = 1'-0"
140
0.015625
141
12.0
290
     0
  0
SCALE
  5
8E6
102
{ACAD_REACTORS
330
8E2
102
}
330
8E2
100
AcDbScale
 70
     0
300
1/32" = 1'-0"
140
0.03125
141
12.0
290
     0
  0
SCALE
  5
8E7
102
{ACAD_REACTORS
330
8E2
102
}
330
8E2
100
AcDbScale
 70
     0
300
1/16" = 1'-0"
140
0.0625
141
12.0
290
     0
  0
SCALE
  5
8E8
102
{ACAD_REACTORS
330
8E2
102
}
330
8E2
100
AcDbScale
 70
     0
300
3/32" = 1'-0"
140
0.09375
141
12.0
290
     0
  0
SCALE
  5
8E9
102
{ACAD_REACTORS
330
8E2
102
}
330
8E2
100
AcDbScale
 70
     0
300
1/8" = 1'-0"
140
0.125
141
12.0
290
     0
  0
SCALE
  5
8EA
102
{ACAD_REACTORS
330
8E2
102
}
330
8E2
100
AcDbScale
 70
     0
300
3/16" = 1'-0"
140
0.1875
141
12.0
290
     0
  0
SCALE
  5
8EB
102
{ACAD_REACTORS
330
8E2
102
}
330
8E2
100
AcDbScale
 70
     0
300
1/4" = 1'-0"
140
0.25
141
12.0
290
     0
  0
SCALE
  5
8EC
102
{ACAD_REACTORS
330
8E2
102
}
330
8E2
100
AcDbScale
 70
     0
300
3/8" = 1'-0"
140
0.375
141
12.0
290
     0
  0
SCALE
  5
8ED
102
{ACAD_REACTORS
330
8E2
102
}
330
8E2
100
AcDbScale
 70
     0
300
1/2" = 1'-0"
140
0.5
141
12.0
290
     0
  0
SCALE
  5
8EE
102
{ACAD_REACTORS
330
8E2
102
}
330
8E2
100
AcDbScale
 70
     0
300
3/4" = 1'-0"
140
0.75
141
12.0
290
     0
  0
SCALE
  5
8EF
102
{ACAD_REACTORS
330
8E2
102
}
330
8E2
100
AcDbScale
 70
     0
300
1" = 1'-0"
140
1.0
141
12.0
290
     0
  0
SCALE
  5
8F0
102
{ACAD_REACTORS
330
8E2
102
}
330
8E2
100
AcDbScale
 70
     0
300
1-1/2" = 1'-0"
140
1.5
141
12.0
290
     0
  0
SCALE
  5
8F1
102
{ACAD_REACTORS
330
8E2
102
}
330
8E2
100
AcDbScale
 70
     0
300
3" = 1'-0"
140
3.0
141
12.0
290
     0
  0
SCALE
  5
8F2
102
{ACAD_REACTORS
330
8E2
102
}
330
8E2
100
AcDbScale
 70
     0
300
6" = 1'-0"
140
6.0
141
12.0
290
     0
  0
SCALE
  5
8F3
102
{ACAD_REACTORS
330
8E2
102
}
330
8E2
100
AcDbScale
 70
     0
300
1'-0" = 1'-0"
140
12.0
141
12.0
290
     0
  0
ACDBSECTIONVIEWSTYLE
  5
8F7
102
{ACAD_REACTORS
330
8F6
102
}
330
8F6
100
AcDbModelDocViewStyle
 70
     0
  3
Imperial24
290
     0
300
Imperial24
 90
        0
100
AcDbSectionViewStyle
 70
     0
 71
     0
 90
       78
 71
     1
340
17
 62
   256
 40
0.24
340
0
340
0
 62
   256
 40
0.24
300
I, O, Q, S, X, Z
 40
0.48
 90
        3
 40
0.18
 90
        1
 71
     2
340
13
 90
       25
 62
   256
340
13
 90
       50
 62
   256
 40
0.24
 40
0.0
 40
0.24
 71
     3
340
17
 62
   256
 40
0.24
 90
        1
 40
0.75
 90
        1
300
%<\AcVar ViewType \f "%tc1">% %<\AcVar ViewSectionStartId>%-%<\AcVar ViewSectionEndId>%\PSCALE %<\AcVar ViewScale \f "%sn">%
 71
     4
 62
   256
 62
   257
300
ANSI31
 40
1.0
 90
        0
290
     0
290
     0
 90
        6
 40
0.0
 40
1.570796326794896
 40
0.2617993877991494
 40
1.308996938995747
 40
-0.2617993877991494
 40
1.832595714594044
  0
TABLESTYLE
  5
8E1
102
{ACAD_XDICTIONARY
360
26EE58
102
}
102
{ACAD_REACTORS
330
8E0
102
}
330
8E0
100
AcDbTableStyle
280
     0
  3
Standard
 70
     0
 71
     0
 40
0.06
 41
0.06
280
     0
281
     0
  7
Standard
140
1.25
170
     2
 62
     0
 63
     7
283
     0
 90
      512
 91
        0
  1

274
    -2
284
     1
 64
     0
275
    -2
285
     1
 65
     0
276
    -2
286
     1
 66
     0
277
    -2
287
     1
 67
     0
278
    -2
288
     1
 68
     0
279
    -2
289
     1
 69
     0
  7
Standard
140
1.25
170
     5
 62
     0
 63
     7
283
     0
 90
      512
 91
        0
  1

274
    -2
284
     1
 64
     0
275
    -2
285
     1
 65
     0
276
    -2
286
     1
 66
     0
277
    -2
287
     1
 67
     0
278
    -2
288
     1
 68
     0
279
    -2
289
     1
 69
     0
  7
Standard
140
1.25
170
     5
 62
     0
 63
     7
283
     0
 90
      512
 91
        0
  1

274
    -2
284
     1
 64
     0
275
    -2
285
     1
 65
     0
276
    -2
286
     1
 66
     0
277
    -2
287
     1
 67
     0
278
    -2
288
     1
 68
     0
279
    -2
289
     1
 69
     0
  0
VISUALSTYLE
  5
8CC
102
{ACAD_REACTORS
330
8C6
102
}
330
8C6
100
AcDbVisualStyle
  2
2dWireframe
 70
     4
177
     3
291
     0
 70
    58
 90
        0
176
     1
 90
        2
176
     1
 90
        0
176
     1
 90
        0
176
     1
 40
0.6
176
     1
 40
30.0
176
     1
 62
     7
420
 16777215
176
     1
 90
        1
176
     1
 90
        4
176
     1
 62
     7
176
     1
 62
   257
176
     1
 90
        1
176
     1
 90
        1
176
     1
 40
1.0
176
     1
 90
        0
176
     1
 62
   257
176
     1
 40
1.0
176
     1
 90
        1
176
     1
 90
        6
176
     1
 90
        2
176
     1
 62
     7
176
     1
 90
        5
176
     1
 90
        0
176
     1
 90
        0
176
     1
290
     0
176
     1
 90
        1
176
     1
 40
0.0
176
     1
 90
        0
176
     1
290
     1
176
     1
290
     1
176
     1
290
     0
176
     1
290
     0
176
     1
290
     0
176
     1
290
     0
176
     1
290
     0
176
     1
290
     0
176
     1
290
     0
176
     1
 90
       50
176
     1
 40
0.0
176
     1
 40
1.0
176
     1
 90
        0
176
     1
 62
    18
176
     1
 90
       50
176
     1
 90
        3
176
     1
 62
     5
420
      255
176
     1
290
     0
176
     1
 90
       50
176
     1
 90
       50
176
     1
 90
       50
176
     1
290
     0
176
     1
 90
       50
176
     1
 62
   256
176
     0
 40
1.0
176
     0
 90
        2
176
     1
  1
strokes_ogs.tif
176
     1
290
     0
176
     1
 40
1.0
176
     1
 40
1.0
176
     1
  0
VISUALSTYLE
  5
8CB
102
{ACAD_REACTORS
330
8C6
102
}
330
8C6
100
AcDbVisualStyle
  2
Basic
 70
     7
177
     3
291
     1
 70
    58
 90
        1
176
     1
 90
        0
176
     1
 90
        1
176
     1
 90
        0
176
     1
 40
0.6
176
     1
 40
30.0
176
     1
 62
     7
420
 16777215
176
     1
 90
        0
176
     1
 90
        4
176
     1
 62
     7
176
     1
 62
   257
176
     1
 90
        1
176
     1
 90
        1
176
     1
 40
1.0
176
     1
 90
        8
176
     1
 62
     7
176
     1
 40
1.0
176
     1
 90
        1
176
     1
 90
        6
176
     1
 90
        2
176
     1
 62
     7
176
     1
 90
        5
176
     1
 90
        0
176
     1
 90
        0
176
     1
290
     0
176
     1
 90
        1
176
     1
 40
0.0
176
     1
 90
        0
176
     1
290
     0
176
     1
290
     1
176
     1
290
     1
176
     1
290
     0
176
     1
290
     0
176
     1
290
     0
176
     1
290
     0
176
     1
290
     0
176
     1
290
     0
176
     1
 90
       50
176
     1
 40
0.0
176
     1
 40
1.0
176
     1
 90
        0
176
     1
 62
    18
176
     1
 90
       50
176
     1
 90
        3
176
     1
 62
     5
420
      255
176
     1
290
     0
176
     1
 90
       50
176
     1
 90
       50
176
     1
 90
       50
176
     1
290
     0
176
     1
 90
       50
176
     1
 62
   256
176
     0
 40
1.0
176
     0
 90
        2
176
     1
  1
strokes_ogs.tif
176
     1
290
     0
176
     1
 40
1.0
176
     1
 40
1.0
176
     1
  0
VISUALSTYLE
  5
8D2
102
{ACAD_REACTORS
330
8C6
102
}
330
8C6
100
AcDbVisualStyle
  2
Brighten
 70
    12
177
     3
291
     1
 70
    58
 90
        2
176
     1
 90
        2
176
     1
 90
        0
176
     1
 90
        0
176
     1
 40
0.6
176
     1
 40
30.0
176
     1
 62
     7
420
 16777215
176
     1
 90
        1
176
     1
 90
        4
176
     1
 62
     7
176
     1
 62
   257
176
     1
 90
        1
176
     1
 90
        1
176
     1
 40
1.0
176
     1
 90
        8
176
     1
 62
     7
176
     1
 40
1.0
176
     1
 90
        1
176
     1
 90
        6
176
     1
 90
        2
176
     1
 62
     7
176
     1
 90
        5
176
     1
 90
        0
176
     1
 90
        0
176
     1
290
     0
176
     1
 90
        1
176
     1
 40
50.0
176
     1
 90
        0
176
     1
290
     0
176
     1
290
     1
176
     1
290
     1
176
     1
290
     0
176
     1
290
     0
176
     1
290
     0
176
     1
290
     0
176
     1
290
     0
176
     1
290
     0
176
     1
 90
       50
176
     1
 40
0.0
176
     1
 40
1.0
176
     1
 90
        0
176
     1
 62
    18
176
     1
 90
       50
176
     1
 90
        3
176
     1
 62
     5
420
      255
176
     1
290
     0
176
     1
 90
       50
176
     1
 90
       50
176
     1
 90
       50
176
     1
290
     0
176
     1
 90
       50
176
     1
 62
   256
176
     0
 40
1.0
176
     0
 90
        2
176
     1
  1
strokes_ogs.tif
176
     1
290
     0
176
     1
 40
1.0
176
     1
 40
1.0
176
     1
  0
VISUALSTYLE
  5
8D6
102
{ACAD_REACTORS
330
8C6
102
}
330
8C6
100
AcDbVisualStyle
  2
ColorChange
 70
    16
177
     3
291
     1
 70
    58
 90
        2
176
     1
 90
        2
176
     1
 90
        3
176
     1
 90
        0
176
     1
 40
0.6
176
     1
 40
30.0
176
     1
 62
     8
420
  8421504
176
     1
 90
        1
176
     1
 90
        4
176
     1
 62
     7
176
     1
 62
   257
176
     1
 90
        1
176
     1
 90
        1
176
     1
 40
1.0
176
     1
 90
        8
176
     1
 62
     8
420
  8421504
176
     1
 40
1.0
176
     1
 90
        1
176
     1
 90
        6
176
     1
 90
        2
176
     1
 62
     7
176
     1
 90
        5
176
     1
 90
        0
176
     1
 90
        0
176
     1
290
     0
176
     1
 90
        1
176
     1
 40
0.0
176
     1
 90
        0
176
     1
290
     0
176
     1
290
     1
176
     1
290
     1
176
     1
290
     0
176
     1
290
     0
176
     1
290
     0
176
     1
290
     0
176
     1
290
     0
176
     1
290
     0
176
     1
 90
       50
176
     1
 40
0.0
176
     1
 40
1.0
176
     1
 90
        0
176
     1
 62
    18
176
     1
 90
       50
176
     1
 90
        3
176
     1
 62
     5
420
      255
176
     1
290
     0
176
     1
 90
       50
176
     1
 90
       50
176
     1
 90
       50
176
     1
290
     0
176
     1
 90
       50
176
     1
 62
   256
176
     0
 40
1.0
176
     0
 90
        2
176
     1
  1
strokes_ogs.tif
176
     1
290
     0
176
     1
 40
1.0
176
     1
 40
1.0
176
     1
  0
VISUALSTYLE
  5
8CF
102
{ACAD_REACTORS
330
8C6
102
}
330
8C6
100
AcDbVisualStyle
  2
Conceptual
 70
     9
177
     3
291
     0
 70
    58
 90
        3
176
     1
 90
        2
176
     1
 90
        0
176
     1
 90
        0
176
     1
 40
0.6
176
     1
 40
30.0
176
     1
 62
     7
420
 16777215
176
     1
 90
        2
176
     1
 90
        2
176
     1
 62
     7
176
     1
 62
   257
176
     1
 90
        1
176
     1
 90
        1
176
     1
 40
179.0
176
     1
 90
        8
176
     1
 62
     7
176
     1
 40
1.0
176
     1
 90
        1
176
     1
 90
        6
176
     1
 90
        2
176
     1
 62
     7
176
     1
 90
        3
176
     1
 90
        0
176
     1
 90
        0
176
     1
290
     0
176
     1
 90
        1
176
     1
 40
0.0
176
     1
 90
        0
176
     1
290
     0
176
     1
290
     1
176
     1
290
     1
176
     1
290
     0
176
     1
290
     0
176
     1
290
     0
176
     1
290
     0
176
     1
290
     0
176
     1
290
     0
176
     1
 90
       50
176
     1
 40
0.0
176
     1
 40
1.0
176
     1
 90
        0
176
     1
 62
    18
176
     1
 90
       50
176
     1
 90
        3
176
     1
 62
     5
420
      255
176
     1
290
     0
176
     1
 90
       50
176
     1
 90
       50
176
     1
 90
       50
176
     1
290
     0
176
     1
 90
       50
176
     1
 62
   256
176
     0
 40
1.0
176
     0
 90
        2
176
     1
  1
strokes_ogs.tif
176
     1
290
     0
176
     1
 40
1.0
176
     1
 40
1.0
176
     1
  0
VISUALSTYLE
  5
8D1
102
{ACAD_REACTORS
330
8C6
102
}
330
8C6
100
AcDbVisualStyle
  2
Dim
 70
    11
177
     3
291
     1
 70
    58
 90
        2
176
     1
 90
        2
176
     1
 90
        0
176
     1
 90
        0
176
     1
 40
0.6
176
     1
 40
30.0
176
     1
 62
     7
420
 16777215
176
     1
 90
        1
176
     1
 90
        4
176
     1
 62
     7
176
     1
 62
   257
176
     1
 90
        1
176
     1
 90
        1
176
     1
 40
1.0
176
     1
 90
        8
176
     1
 62
     7
176
     1
 40
1.0
176
     1
 90
        1
176
     1
 90
        6
176
     1
 90
        2
176
     1
 62
     7
176
     1
 90
        5
176
     1
 90
        0
176
     1
 90
        0
176
     1
290
     0
176
     1
 90
        1
176
     1
 40
-50.0
176
     1
 90
        0
176
     1
290
     0
176
     1
290
     1
176
     1
290
     1
176
     1
290
     0
176
     1
290
     0
176
     1
290
     0
176
     1
290
     0
176
     1
290
     0
176
     1
290
     0
176
     1
 90
       50
176
     1
 40
0.0
176
     1
 40
1.0
176
     1
 90
        0
176
     1
 62
    18
176
     1
 90
       50
176
     1
 90
        3
176
     1
 62
     5
420
      255
176
     1
290
     0
176
     1
 90
       50
176
     1
 90
       50
176
     1
 90
       50
176
     1
290
     0
176
     1
 90
       50
176
     1
 62
   256
176
     0
 40
1.0
176
     0
 90
        2
176
     1
  1
strokes_ogs.tif
176
     1
290
     0
176
     1
 40
1.0
176
     1
 40
1.0
176
     1
  0
VISUALSTYLE
  5
8DE
102
{ACAD_REACTORS
330
8C6
102
}
330
8C6
100
AcDbVisualStyle
  2
EdgeColorOff
 70
    22
177
     3
291
     1
 70
    58
 90
        2
176
     0
 90
        2
176
     0
 90
        0
176
     0
 90
        0
176
     0
 40
0.6
176
     0
 40
30.0
176
     0
 62
     7
420
 16777215
176
     0
 90
        1
176
     0
 90
        4
176
     0
 62
     7
176
     0
 62
   257
176
     0
 90
        1
176
     0
 90
        1
176
     0
 40
1.0
176
     0
 90
        8
176
     2
 62
     7
176
     0
 40
1.0
176
     0
 90
        1
176
     0
 90
        6
176
     0
 90
        2
176
     0
 62
     7
176
     0
 90
        5
176
     0
 90
        0
176
     0
 90
        0
176
     0
290
     0
176
     0
 90
        1
176
     0
 40
0.0
176
     0
 90
        0
176
     0
290
     0
176
     0
290
     1
176
     0
290
     1
176
     0
290
     0
176
     0
290
     0
176
     0
290
     0
176
     0
290
     0
176
     0
290
     0
176
     0
290
     0
176
     0
 90
       50
176
     0
 40
0.0
176
     0
 40
1.0
176
     0
 90
        0
176
     0
 62
    18
176
     0
 90
       50
176
     0
 90
        3
176
     0
 62
     5
420
      255
176
     0
290
     0
176
     0
 90
       50
176
     0
 90
       50
176
     0
 90
       50
176
     0
290
     0
176
     0
 90
       50
176
     0
 62
   256
176
     0
 40
1.0
176
     0
 90
        2
176
     0
  1
strokes_ogs.tif
176
     0
290
     0
176
     0
 40
1.0
176
     0
 40
1.0
176
     0
  0
VISUALSTYLE
  5
8D5
102
{ACAD_REACTORS
330
8C6
102
}
330
8C6
100
AcDbVisualStyle
  2
Facepattern
 70
    15
177
     3
291
     1
 70
    58
 90
        2
176
     1
 90
        2
176
     1
 90
        0
176
     1
 90
        0
176
     1
 40
0.6
176
     1
 40
30.0
176
     1
 62
     7
420
 16777215
176
     1
 90
        1
176
     1
 90
        4
176
     1
 62
     7
176
     1
 62
   257
176
     1
 90
        1
176
     1
 90
        1
176
     1
 40
1.0
176
     1
 90
        8
176
     1
 62
     7
176
     1
 40
1.0
176
     1
 90
        1
176
     1
 90
        6
176
     1
 90
        2
176
     1
 62
     7
176
     1
 90
        5
176
     1
 90
        0
176
     1
 90
        0
176
     1
290
     0
176
     1
 90
        1
176
     1
 40
0.0
176
     1
 90
        0
176
     1
290
     0
176
     1
290
     1
176
     1
290
     1
176
     1
290
     0
176
     1
290
     0
176
     1
290
     0
176
     1
290
     0
176
     1
290
     0
176
     1
290
     0
176
     1
 90
       50
176
     1
 40
0.0
176
     1
 40
1.0
176
     1
 90
        0
176
     1
 62
    18
176
     1
 90
       50
176
     1
 90
        3
176
     1
 62
     5
420
      255
176
     1
290
     0
176
     1
 90
       50
176
     1
 90
       50
176
     1
 90
       50
176
     1
290
     0
176
     1
 90
       50
176
     1
 62
   256
176
     0
 40
1.0
176
     0
 90
        2
176
     1
  1
strokes_ogs.tif
176
     1
290
     0
176
     1
 40
1.0
176
     1
 40
1.0
176
     1
  0
VISUALSTYLE
  5
8C7
102
{ACAD_REACTORS
330
8C6
102
}
330
8C6
100
AcDbVisualStyle
  2
Flat
 70
     0
177
     3
291
     1
 70
    58
 90
        2
176
     1
 90
        1
176
     1
 90
        1
176
     1
 90
        2
176
     1
 40
0.6
176
     1
 40
30.0
176
     1
 62
     7
420
 16777215
176
     1
 90
        0
176
     1
 90
        0
176
     1
 62
     7
176
     1
 62
   257
176
     1
 90
        1
176
     1
 90
        1
176
     1
 40
1.0
176
     1
 90
        8
176
     1
 62
     7
176
     1
 40
1.0
176
     1
 90
        1
176
     1
 90
        6
176
     1
 90
        2
176
     1
 62
     7
176
     1
 90
        5
176
     1
 90
        0
176
     1
 90
        0
176
     1
290
     0
176
     1
 90
       13
176
     1
 40
0.0
176
     1
 90
        0
176
     1
290
     0
176
     1
290
     1
176
     1
290
     1
176
     1
290
     0
176
     1
290
     0
176
     1
290
     0
176
     1
290
     0
176
     1
290
     0
176
     1
290
     0
176
     1
 90
       50
176
     1
 40
0.0
176
     1
 40
1.0
176
     1
 90
        0
176
     1
 62
    18
176
     1
 90
       50
176
     1
 90
        3
176
     1
 62
     5
420
      255
176
     1
290
     0
176
     1
 90
       50
176
     1
 90
       50
176
     1
 90
       50
176
     1
290
     0
176
     1
 90
       50
176
     1
 62
   256
176
     0
 40
1.0
176
     0
 90
        2
176
     1
  1
strokes_ogs.tif
176
     1
290
     0
176
     1
 40
1.0
176
     1
 40
1.0
176
     1
  0
VISUALSTYLE
  5
8C8
102
{ACAD_REACTORS
330
8C6
102
}
330
8C6
100
AcDbVisualStyle
  2
FlatWithEdges
 70
     1
177
     3
291
     1
 70
    58
 90
        2
176
     1
 90
        1
176
     1
 90
        1
176
     1
 90
        2
176
     1
 40
0.6
176
     1
 40
30.0
176
     1
 62
     7
420
 16777215
176
     1
 90
        1
176
     1
 90
        0
176
     1
 62
     7
176
     1
 62
   257
176
     1
 90
        1
176
     1
 90
        1
176
     1
 40
1.0
176
     1
 90
        0
176
     1
 62
   257
176
     1
 40
1.0
176
     1
 90
        1
176
     1
 90
        6
176
     1
 90
        2
176
     1
 62
     7
176
     1
 90
        5
176
     1
 90
        0
176
     1
 90
        0
176
     1
290
     0
176
     1
 90
       13
176
     1
 40
0.0
176
     1
 90
        0
176
     1
290
     0
176
     1
290
     1
176
     1
290
     1
176
     1
290
     0
176
     1
290
     0
176
     1
290
     0
176
     1
290
     0
176
     1
290
     0
176
     1
290
     0
176
     1
 90
       50
176
     1
 40
0.0
176
     1
 40
1.0
176
     1
 90
        0
176
     1
 62
    18
176
     1
 90
       50
176
     1
 90
        3
176
     1
 62
     5
420
      255
176
     1
290
     0
176
     1
 90
       50
176
     1
 90
       50
176
     1
 90
       50
176
     1
290
     0
176
     1
 90
       50
176
     1
 62
   256
176
     0
 40
1.0
176
     0
 90
        2
176
     1
  1
strokes_ogs.tif
176
     1
290
     0
176
     1
 40
1.0
176
     1
 40
1.0
176
     1
  0
VISUALSTYLE
  5
8C9
102
{ACAD_REACTORS
330
8C6
102
}
330
8C6
100
AcDbVisualStyle
  2
Gouraud
 70
     2
177
     3
291
     1
 70
    58
 90
        2
176
     1
 90
        2
176
     1
 90
        1
176
     1
 90
        2
176
     1
 40
0.6
176
     1
 40
30.0
176
     1
 62
     7
420
 16777215
176
     1
 90
        0
176
     1
 90
        0
176
     1
 62
     7
176
     1
 62
   257
176
     1
 90
        1
176
     1
 90
        1
176
     1
 40
1.0
176
     1
 90
        0
176
     1
 62
     7
176
     1
 40
1.0
176
     1
 90
        1
176
     1
 90
        6
176
     1
 90
        2
176
     1
 62
     7
176
     1
 90
        5
176
     1
 90
        0
176
     1
 90
        0
176
     1
290
     0
176
     1
 90
       13
176
     1
 40
0.0
176
     1
 90
        0
176
     1
290
     0
176
     1
290
     1
176
     1
290
     1
176
     1
290
     0
176
     1
290
     0
176
     1
290
     0
176
     1
290
     0
176
     1
290
     0
176
     1
290
     0
176
     1
 90
       50
176
     1
 40
0.0
176
     1
 40
1.0
176
     1
 90
        0
176
     1
 62
    18
176
     1
 90
       50
176
     1
 90
        3
176
     1
 62
     5
420
      255
176
     1
290
     0
176
     1
 90
       50
176
     1
 90
       50
176
     1
 90
       50
176
     1
290
     0
176
     1
 90
       50
176
     1
 62
   256
176
     0
 40
1.0
176
     0
 90
        2
176
     1
  1
strokes_ogs.tif
176
     1
290
     0
176
     1
 40
1.0
176
     1
 40
1.0
176
     1
  0
VISUALSTYLE
  5
8CA
102
{ACAD_REACTORS
330
8C6
102
}
330
8C6
100
AcDbVisualStyle
  2
GouraudWithEdges
 70
     3
177
     3
291
     1
 70
    58
 90
        2
176
     1
 90
        2
176
     1
 90
        1
176
     1
 90
        2
176
     1
 40
0.6
176
     1
 40
30.0
176
     1
 62
     7
420
 16777215
176
     1
 90
        1
176
     1
 90
        0
176
     1
 62
     7
176
     1
 62
   257
176
     1
 90
        1
176
     1
 90
        1
176
     1
 40
1.0
176
     1
 90
        0
176
     1
 62
   257
176
     1
 40
1.0
176
     1
 90
        1
176
     1
 90
        6
176
     1
 90
        2
176
     1
 62
     7
176
     1
 90
        5
176
     1
 90
        0
176
     1
 90
        0
176
     1
290
     0
176
     1
 90
       13
176
     1
 40
0.0
176
     1
 90
        0
176
     1
290
     0
176
     1
290
     1
176
     1
290
     1
176
     1
290
     0
176
     1
290
     0
176
     1
290
     0
176
     1
290
     0
176
     1
290
     0
176
     1
290
     0
176
     1
 90
       50
176
     1
 40
0.0
176
     1
 40
1.0
176
     1
 90
        0
176
     1
 62
    18
176
     1
 90
       50
176
     1
 90
        3
176
     1
 62
     5
420
      255
176
     1
290
     0
176
     1
 90
       50
176
     1
 90
       50
176
     1
 90
       50
176
     1
290
     0
176
     1
 90
       50
176
     1
 62
   256
176
     0
 40
1.0
176
     0
 90
        2
176
     1
  1
strokes_ogs.tif
176
     1
290
     0
176
     1
 40
1.0
176
     1
 40
1.0
176
     1
  0
VISUALSTYLE
  5
8CE
102
{ACAD_REACTORS
330
8C6
102
}
330
8C6
100
AcDbVisualStyle
  2
Hidden
 70
     6
177
     3
291
     0
 70
    58
 90
        1
176
     1
 90
        2
176
     1
 90
        2
176
     1
 90
        0
176
     1
 40
0.6
176
     1
 40
30.0
176
     1
 62
     7
420
 16777215
176
     1
 90
        2
176
     1
 90
        2
176
     1
 62
     7
176
     1
 62
   257
176
     1
 90
        2
176
     1
 90
        1
176
     1
 40
40.0
176
     1
 90
        0
176
     1
 62
   257
176
     1
 40
1.0
176
     1
 90
        1
176
     1
 90
        6
176
     1
 90
        2
176
     1
 62
     7
176
     1
 90
        3
176
     1
 90
        0
176
     1
 90
        0
176
     1
290
     0
176
     1
 90
        1
176
     1
 40
0.0
176
     1
 90
        0
176
     1
290
     0
176
     1
290
     1
176
     1
290
     1
176
     1
290
     0
176
     1
290
     0
176
     1
290
     0
176
     1
290
     0
176
     1
290
     0
176
     1
290
     0
176
     1
 90
       50
176
     1
 40
0.0
176
     1
 40
1.0
176
     1
 90
        0
176
     1
 62
    18
176
     1
 90
       50
176
     1
 90
        3
176
     1
 62
     5
420
      255
176
     1
290
     0
176
     1
 90
       50
176
     1
 90
       50
176
     1
 90
       50
176
     1
290
     0
176
     1
 90
       50
176
     1
 62
   256
176
     0
 40
1.0
176
     0
 90
        2
176
     1
  1
strokes_ogs.tif
176
     1
290
     0
176
     1
 40
1.0
176
     1
 40
1.0
176
     1
  0
VISUALSTYLE
  5
8DC
102
{ACAD_REACTORS
330
8C6
102
}
330
8C6
100
AcDbVisualStyle
  2
JitterOff
 70
    20
177
     3
291
     1
 70
    58
 90
        2
176
     0
 90
        2
176
     0
 90
        0
176
     0
 90
        0
176
     0
 40
0.6
176
     0
 40
30.0
176
     0
 62
     7
420
 16777215
176
     0
 90
        1
176
     0
 90
        4
176
     0
 62
     7
176
     0
 62
   257
176
     0
 90
        1
176
     0
 90
        1
176
     0
 40
1.0
176
     0
 90
       10
176
     2
 62
     7
176
     0
 40
1.0
176
     0
 90
        1
176
     0
 90
        6
176
     0
 90
        2
176
     0
 62
     7
176
     0
 90
        5
176
     0
 90
        0
176
     0
 90
        0
176
     0
290
     0
176
     0
 90
        1
176
     0
 40
0.0
176
     0
 90
        0
176
     0
290
     0
176
     0
290
     1
176
     0
290
     1
176
     0
290
     0
176
     0
290
     0
176
     0
290
     0
176
     0
290
     0
176
     0
290
     0
176
     0
290
     0
176
     0
 90
       50
176
     0
 40
0.0
176
     0
 40
1.0
176
     0
 90
        0
176
     0
 62
    18
176
     0
 90
       50
176
     0
 90
        3
176
     0
 62
     5
420
      255
176
     0
290
     0
176
     0
 90
       50
176
     0
 90
       50
176
     0
 90
       50
176
     0
290
     0
176
     0
 90
       50
176
     0
 62
   256
176
     0
 40
1.0
176
     0
 90
        2
176
     0
  1
strokes_ogs.tif
176
     0
290
     0
176
     0
 40
1.0
176
     0
 40
1.0
176
     0
  0
VISUALSTYLE
  5
8D4
102
{ACAD_REACTORS
330
8C6
102
}
330
8C6
100
AcDbVisualStyle
  2
Linepattern
 70
    14
177
     3
291
     1
 70
    58
 90
        2
176
     1
 90
        2
176
     1
 90
        0
176
     1
 90
        0
176
     1
 40
0.6
176
     1
 40
30.0
176
     1
 62
     7
420
 16777215
176
     1
 90
        1
176
     1
 90
        4
176
     1
 62
     7
176
     1
 62
   257
176
     1
 90
        7
176
     1
 90
        7
176
     1
 40
1.0
176
     1
 90
        8
176
     1
 62
     7
176
     1
 40
1.0
176
     1
 90
        1
176
     1
 90
        6
176
     1
 90
        2
176
     1
 62
     7
176
     1
 90
        5
176
     1
 90
        0
176
     1
 90
        0
176
     1
290
     0
176
     1
 90
        1
176
     1
 40
0.0
176
     1
 90
        0
176
     1
290
     0
176
     1
290
     1
176
     1
290
     1
176
     1
290
     0
176
     1
290
     0
176
     1
290
     0
176
     1
290
     0
176
     1
290
     0
176
     1
290
     0
176
     1
 90
       50
176
     1
 40
0.0
176
     1
 40
1.0
176
     1
 90
        0
176
     1
 62
    18
176
     1
 90
       50
176
     1
 90
        3
176
     1
 62
     5
420
      255
176
     1
290
     0
176
     1
 90
       50
176
     1
 90
       50
176
     1
 90
       50
176
     1
290
     0
176
     1
 90
       50
176
     1
 62
   256
176
     0
 40
1.0
176
     0
 90
        2
176
     1
  1
strokes_ogs.tif
176
     1
290
     0
176
     1
 40
1.0
176
     1
 40
1.0
176
     1
  0
VISUALSTYLE
  5
8DD
102
{ACAD_REACTORS
330
8C6
102
}
330
8C6
100
AcDbVisualStyle
  2
OverhangOff
 70
    21
177
     3
291
     1
 70
    58
 90
        2
176
     0
 90
        2
176
     0
 90
        0
176
     0
 90
        0
176
     0
 40
0.6
176
     0
 40
30.0
176
     0
 62
     7
420
 16777215
176
     0
 90
        1
176
     0
 90
        4
176
     0
 62
     7
176
     0
 62
   257
176
     0
 90
        1
176
     0
 90
        1
176
     0
 40
1.0
176
     0
 90
        9
176
     2
 62
     7
176
     0
 40
1.0
176
     0
 90
        1
176
     0
 90
        6
176
     0
 90
        2
176
     0
 62
     7
176
     0
 90
        5
176
     0
 90
        0
176
     0
 90
        0
176
     0
290
     0
176
     0
 90
        1
176
     0
 40
0.0
176
     0
 90
        0
176
     0
290
     0
176
     0
290
     1
176
     0
290
     1
176
     0
290
     0
176
     0
290
     0
176
     0
290
     0
176
     0
290
     0
176
     0
290
     0
176
     0
290
     0
176
     0
 90
       50
176
     0
 40
0.0
176
     0
 40
1.0
176
     0
 90
        0
176
     0
 62
    18
176
     0
 90
       50
176
     0
 90
        3
176
     0
 62
     5
420
      255
176
     0
290
     0
176
     0
 90
       50
176
     0
 90
       50
176
     0
 90
       50
176
     0
290
     0
176
     0
 90
       50
176
     0
 62
   256
176
     0
 40
1.0
176
     0
 90
        2
176
     0
  1
strokes_ogs.tif
176
     0
290
     0
176
     0
 40
1.0
176
     0
 40
1.0
176
     0
  0
VISUALSTYLE
  5
8D0
102
{ACAD_REACTORS
330
8C6
102
}
330
8C6
100
AcDbVisualStyle
  2
Realistic
 70
     8
177
     3
291
     0
 70
    58
 90
        2
176
     1
 90
        3
176
     1
 90
        0
176
     1
 90
        2
176
     1
 40
0.6
176
     1
 40
30.0
176
     1
 62
     7
420
 16777215
176
     1
 90
        0
176
     1
 90
        0
176
     1
 62
     7
176
     1
 62
   257
176
     1
 90
        1
176
     1
 90
        1
176
     1
 40
1.0
176
     1
 90
        8
176
     1
 62
   257
176
     1
 40
1.0
176
     1
 90
        1
176
     1
 90
        6
176
     1
 90
        2
176
     1
 62
     7
176
     1
 90
        3
176
     1
 90
        0
176
     1
 90
        0
176
     1
290
     0
176
     1
 90
       13
176
     1
 40
0.0
176
     1
 90
        0
176
     1
290
     0
176
     1
290
     1
176
     1
290
     1
176
     1
290
     0
176
     1
290
     0
176
     1
290
     0
176
     1
290
     0
176
     1
290
     0
176
     1
290
     0
176
     1
 90
       50
176
     1
 40
0.0
176
     1
 40
1.0
176
     1
 90
        0
176
     1
 62
    18
176
     1
 90
       50
176
     1
 90
        3
176
     1
 62
     5
420
      255
176
     1
290
     0
176
     1
 90
       50
176
     1
 90
       50
176
     1
 90
       50
176
     1
290
     0
176
     1
 90
       50
176
     1
 62
   256
176
     0
 40
1.0
176
     0
 90
        2
176
     1
  1
strokes_ogs.tif
176
     1
290
     0
176
     1
 40
1.0
176
     1
 40
1.0
176
     1
  0
VISUALSTYLE
  5
8DB
102
{ACAD_REACTORS
330
8C6
102
}
330
8C6
100
AcDbVisualStyle
  2
Shaded
 70
    27
177
     3
291
     0
 70
    58
 90
        2
176
     1
 90
        2
176
     1
 90
        1
176
     1
 90
        2
176
     1
 40
0.6
176
     1
 40
30.0
176
     1
 62
     7
420
 16777215
176
     1
 90
        0
176
     1
 90
        4
176
     1
 62
     7
176
     1
 62
   257
176
     1
 90
        1
176
     1
 90
        1
176
     1
 40
1.0
176
     1
 90
        8
176
     1
 62
   257
176
     1
 40
1.0
176
     1
 90
        1
176
     1
 90
        6
176
     1
 90
        2
176
     1
 62
     8
420
  7895160
176
     1
 90
        3
176
     1
 90
        0
176
     1
 90
        0
176
     1
290
     0
176
     1
 90
        5
176
     1
 40
0.0
176
     1
 90
        0
176
     1
290
     0
176
     1
290
     1
176
     1
290
     1
176
     1
290
     0
176
     1
290
     0
176
     1
290
     0
176
     1
290
     0
176
     1
290
     0
176
     1
290
     0
176
     1
 90
       50
176
     1
 40
0.0
176
     1
 40
1.0
176
     1
 90
        0
176
     1
 62
    18
176
     1
 90
       50
176
     1
 90
        3
176
     1
 62
     5
420
      255
176
     1
290
     0
176
     1
 90
       50
176
     1
 90
       50
176
     1
 90
       50
176
     1
290
     0
176
     1
 90
       50
176
     1
 62
   256
176
     0
 40
1.0
176
     0
 90
        2
176
     1
  1
strokes_ogs.tif
176
     1
290
     0
176
     1
 40
1.0
176
     1
 40
1.0
176
     1
  0
VISUALSTYLE
  5
8DA
102
{ACAD_REACTORS
330
8C6
102
}
330
8C6
100
AcDbVisualStyle
  2
Shaded with edges
 70
    26
177
     3
291
     0
 70
    58
 90
        2
176
     1
 90
        2
176
     1
 90
        1
176
     1
 90
        2
176
     1
 40
0.6
176
     1
 40
30.0
176
     1
 62
     7
420
 16777215
176
     1
 90
        1
176
     1
 90
        2
176
     1
 62
     7
176
     1
 62
   257
176
     1
 90
        2
176
     1
 90
        1
176
     1
 40
1.0
176
     1
 90
        8
176
     1
 62
   257
176
     1
 40
1.0
176
     1
 90
        1
176
     1
 90
        6
176
     1
 90
        2
176
     1
 62
     7
176
     1
 90
        3
176
     1
 90
        0
176
     1
 90
        0
176
     1
290
     0
176
     1
 90
        5
176
     1
 40
0.0
176
     1
 90
        0
176
     1
290
     0
176
     1
290
     1
176
     1
290
     1
176
     1
290
     0
176
     1
290
     0
176
     1
290
     0
176
     1
290
     0
176
     1
290
     0
176
     1
290
     0
176
     1
 90
       50
176
     1
 40
0.0
176
     1
 40
1.0
176
     1
 90
        0
176
     1
 62
    18
176
     1
 90
       50
176
     1
 90
        3
176
     1
 62
     5
420
      255
176
     1
290
     0
176
     1
 90
       50
176
     1
 90
       50
176
     1
 90
       50
176
     1
290
     0
176
     1
 90
       50
176
     1
 62
   256
176
     0
 40
1.0
176
     0
 90
        2
176
     1
  1
strokes_ogs.tif
176
     1
290
     0
176
     1
 40
1.0
176
     1
 40
1.0
176
     1
  0
VISUALSTYLE
  5
8D7
102
{ACAD_REACTORS
330
8C6
102
}
330
8C6
100
AcDbVisualStyle
  2
Shades of Gray
 70
    23
177
     3
291
     0
 70
    58
 90
        2
176
     1
 90
        2
176
     1
 90
        3
176
     1
 90
        0
176
     1
 40
0.6
176
     1
 40
30.0
176
     1
 62
     7
420
 16777215
176
     1
 90
        2
176
     1
 90
        2
176
     1
 62
     7
176
     1
 62
     7
176
     1
 90
        1
176
     1
 90
        1
176
     1
 40
40.0
176
     1
 90
        8
176
     1
 62
     7
176
     1
 40
1.0
176
     1
 90
        1
176
     1
 90
        6
176
     1
 90
        2
176
     1
 62
     7
176
     1
 90
        3
176
     1
 90
        0
176
     1
 90
        0
176
     1
290
     0
176
     1
 90
        1
176
     1
 40
0.0
176
     1
 90
        0
176
     1
290
     0
176
     1
290
     1
176
     1
290
     1
176
     1
290
     0
176
     1
290
     0
176
     1
290
     0
176
     1
290
     0
176
     1
290
     0
176
     1
290
     0
176
     1
 90
       50
176
     1
 40
0.0
176
     1
 40
1.0
176
     1
 90
        0
176
     1
 62
    18
176
     1
 90
       50
176
     1
 90
        3
176
     1
 62
     5
420
      255
176
     1
290
     0
176
     1
 90
       50
176
     1
 90
       50
176
     1
 90
       50
176
     1
290
     0
176
     1
 90
       50
176
     1
 62
   256
176
     0
 40
1.0
176
     0
 90
        2
176
     1
  1
strokes_ogs.tif
176
     1
290
     0
176
     1
 40
1.0
176
     1
 40
1.0
176
     1
  0
VISUALSTYLE
  5
8D8
102
{ACAD_REACTORS
330
8C6
102
}
330
8C6
100
AcDbVisualStyle
  2
Sketchy
 70
    24
177
     3
291
     0
 70
    58
 90
        1
176
     1
 90
        2
176
     1
 90
        2
176
     1
 90
        0
176
     1
 40
0.6
176
     1
 40
30.0
176
     1
 62
     7
420
 16777215
176
     1
 90
        2
176
     1
 90
        2
176
     1
 62
     7
176
     1
 62
     7
176
     1
 90
        1
176
     1
 90
        1
176
     1
 40
40.0
176
     1
 90
       11
176
     1
 62
     7
176
     1
 40
1.0
176
     1
 90
        1
176
     1
 90
        6
176
     1
 90
        2
176
     1
 62
     7
176
     1
 90
        6
176
     1
 90
        0
176
     1
 90
        0
176
     1
290
     0
176
     1
 90
        1
176
     1
 40
0.0
176
     1
 90
        0
176
     1
290
     0
176
     1
290
     1
176
     1
290
     1
176
     1
290
     0
176
     1
290
     0
176
     1
290
     0
176
     1
290
     0
176
     1
290
     0
176
     1
290
     0
176
     1
 90
       50
176
     1
 40
0.0
176
     1
 40
1.0
176
     1
 90
        0
176
     1
 62
    18
176
     1
 90
       50
176
     1
 90
        3
176
     1
 62
     5
420
      255
176
     1
290
     0
176
     1
 90
       50
176
     1
 90
       50
176
     1
 90
       50
176
     1
290
     0
176
     1
 90
       50
176
     1
 62
   256
176
     0
 40
1.0
176
     0
 90
        2
176
     1
  1
strokes_ogs.tif
176
     1
290
     0
176
     1
 40
1.0
176
     1
 40
1.0
176
     1
  0
VISUALSTYLE
  5
8D3
102
{ACAD_REACTORS
330
8C6
102
}
330
8C6
100
AcDbVisualStyle
  2
Thicken
 70
    13
177
     3
291
     1
 70
    58
 90
        2
176
     1
 90
        2
176
     1
 90
        0
176
     1
 90
        0
176
     1
 40
0.6
176
     1
 40
30.0
176
     1
 62
     7
420
 16777215
176
     1
 90
        1
176
     1
 90
        4
176
     1
 62
     7
176
     1
 62
   257
176
     1
 90
        1
176
     1
 90
        1
176
     1
 40
1.0
176
     1
 90
       12
176
     1
 62
     7
176
     1
 40
1.0
176
     1
 90
        1
176
     1
 90
        6
176
     1
 90
        2
176
     1
 62
     7
176
     1
 90
        5
176
     1
 90
        0
176
     1
 90
        0
176
     1
290
     0
176
     1
 90
        1
176
     1
 40
0.0
176
     1
 90
        0
176
     1
290
     0
176
     1
290
     1
176
     1
290
     1
176
     1
290
     0
176
     1
290
     0
176
     1
290
     0
176
     1
290
     0
176
     1
290
     0
176
     1
290
     0
176
     1
 90
       50
176
     1
 40
0.0
176
     1
 40
1.0
176
     1
 90
        0
176
     1
 62
    18
176
     1
 90
       50
176
     1
 90
        3
176
     1
 62
     5
420
      255
176
     1
290
     0
176
     1
 90
       50
176
     1
 90
       50
176
     1
 90
       50
176
     1
290
     0
176
     1
 90
       50
176
     1
 62
   256
176
     0
 40
1.0
176
     0
 90
        2
176
     1
  1
strokes_ogs.tif
176
     1
290
     0
176
     1
 40
1.0
176
     1
 40
1.0
176
     1
  0
VISUALSTYLE
  5
8CD
102
{ACAD_REACTORS
330
8C6
102
}
330
8C6
100
AcDbVisualStyle
  2
Wireframe
 70
     5
177
     3
291
     0
 70
    58
 90
        0
176
     1
 90
        2
176
     1
 90
        0
176
     1
 90
        0
176
     1
 40
0.6
176
     1
 40
30.0
176
     1
 62
     7
420
 16777215
176
     1
 90
        1
176
     1
 90
        4
176
     1
 62
     7
176
     1
 62
   257
176
     1
 90
        1
176
     1
 90
        1
176
     1
 40
1.0
176
     1
 90
        0
176
     1
 62
   257
176
     1
 40
1.0
176
     1
 90
        1
176
     1
 90
        6
176
     1
 90
        2
176
     1
 62
     7
176
     1
 90
        3
176
     1
 90
        0
176
     1
 90
        0
176
     1
290
     0
176
     1
 90
        1
176
     1
 40
0.0
176
     1
 90
        0
176
     1
290
     0
176
     1
290
     1
176
     1
290
     1
176
     1
290
     0
176
     1
290
     0
176
     1
290
     0
176
     1
290
     0
176
     1
290
     0
176
     1
290
     0
176
     1
 90
       50
176
     1
 40
0.0
176
     1
 40
1.0
176
     1
 90
        0
176
     1
 62
    18
176
     1
 90
       50
176
     1
 90
        3
176
     1
 62
     5
420
      255
176
     1
290
     0
176
     1
 90
       50
176
     1
 90
       50
176
     1
 90
       50
176
     1
290
     0
176
     1
 90
       50
176
     1
 62
   256
176
     0
 40
1.0
176
     0
 90
        2
176
     1
  1
strokes_ogs.tif
176
     1
290
     0
176
     1
 40
1.0
176
     1
 40
1.0
176
     1
  0
VISUALSTYLE
  5
8D9
102
{ACAD_REACTORS
330
8C6
102
}
330
8C6
100
AcDbVisualStyle
  2
X-Ray
 70
    25
177
     3
291
     0
 70
    58
 90
        2
176
     1
 90
        2
176
     1
 90
        1
176
     1
 90
        1
176
     1
 40
0.5
176
     1
 40
30.0
176
     1
 62
     7
420
 16777215
176
     1
 90
        1
176
     1
 90
        0
176
     1
 62
     7
176
     1
 62
   257
176
     1
 90
        1
176
     1
 90
        1
176
     1
 40
1.0
176
     1
 90
        8
176
     1
 62
     7
176
     1
 40
1.0
176
     1
 90
        1
176
     1
 90
        6
176
     1
 90
        2
176
     1
 62
     7
176
     1
 90
        3
176
     1
 90
        0
176
     1
 90
        0
176
     1
290
     0
176
     1
 90
       13
176
     1
 40
0.0
176
     1
 90
        0
176
     1
290
     0
176
     1
290
     1
176
     1
290
     1
176
     1
290
     0
176
     1
290
     0
176
     1
290
     0
176
     1
290
     0
176
     1
290
     0
176
     1
290
     0
176
     1
 90
       50
176
     1
 40
0.0
176
     1
 40
1.0
176
     1
 90
        0
176
     1
 62
    18
176
     1
 90
       50
176
     1
 90
        3
176
     1
 62
     5
420
      255
176
     1
290
     0
176
     1
 90
       50
176
     1
 90
       50
176
     1
 90
       50
176
     1
290
     0
176
     1
 90
       50
176
     1
 62
   256
176
     0
 40
1.0
176
     0
 90
        2
176
     1
  1
strokes_ogs.tif
176
     1
290
     0
176
     1
 40
1.0
176
     1
 40
1.0
176
     1
  0
DICTIONARYVAR
  5
168B
102
{ACAD_REACTORS
330
9BC
102
}
330
9BC
100
DictionaryVariables
280
     0
  1
1:1
  0
DICTIONARYVAR
  5
1687
102
{ACAD_REACTORS
330
9BC
102
}
330
9BC
100
DictionaryVariables
280
     0
  1
STANDARD
  0
DICTIONARYVAR
  5
1686
102
{ACAD_REACTORS
330
9BC
102
}
330
9BC
100
DictionaryVariables
280
     0
  1
STANDARD
  0
DICTIONARYVAR
  5
1688
102
{ACAD_REACTORS
330
9BC
102
}
330
9BC
100
DictionaryVariables
280
     0
  1
Imperial24
  0
DICTIONARYVAR
  5
1689
102
{ACAD_REACTORS
330
9BC
102
}
330
9BC
100
DictionaryVariables
280
     0
  1
Imperial24
  0
DICTIONARYVAR
  5
185035
102
{ACAD_REACTORS
330
9BC
102
}
330
9BC
100
DictionaryVariables
280
     0
  1
1
  0
DICTIONARYVAR
  5
249D37
102
{ACAD_REACTORS
330
9BC
102
}
330
9BC
100
DictionaryVariables
280
     0
  1
2
  0
DICTIONARYVAR
  5
FB9E
102
{ACAD_REACTORS
330
9BC
102
}
330
9BC
100
DictionaryVariables
280
     0
  1
BYLAYER
  0
DICTIONARYVAR
  5
1A166A
102
{ACAD_REACTORS
330
9BC
102
}
330
9BC
100
DictionaryVariables
280
     0
  1
SUPPORT
  0
DICTIONARYVAR
  5
16B887
102
{ACAD_REACTORS
330
9BC
102
}
330
9BC
100
DictionaryVariables
280
     0
  1
ByLayer
  0
DICTIONARYVAR
  5
168D
102
{ACAD_REACTORS
330
9BC
102
}
330
9BC
100
DictionaryVariables
280
     0
  1
1
  0
DICTIONARYVAR
  5
168E
102
{ACAD_REACTORS
330
9BC
102
}
330
9BC
100
DictionaryVariables
280
     0
  1
15
  0
DICTIONARYVAR
  5
168C
102
{ACAD_REACTORS
330
9BC
102
}
330
9BC
100
DictionaryVariables
280
     0
  1
0
  0
DICTIONARYVAR
  5
168A
102
{ACAD_REACTORS
330
9BC
102
}
330
9BC
100
DictionaryVariables
280
     0
  1
0
  0
DICTIONARYVAR
  5
BCAE
102
{ACAD_REACTORS
330
9BC
102
}
330
9BC
100
DictionaryVariables
280
     0
  1
Middle
  0
XRECORD
  5
22A2E
102
{ACAD_REACTORS
330
22A2D
102
}
330
22A2D
100
AcDbXrecord
280
     1
330
0
330
0
330
0
330
0
330
0
330
0
330
0
330
0
330
0
330
0
330
0
330
0
330
0
330
0
330
0
330
0
330
0
330
0
330
0
330
0
330
0
330
0
330
0
330
0
330
0
330
0
330
0
330
0
330
0
330
0
330
0
330
0
330
0
330
0
330
0
330
0
330
0
330
0
330
0
330
0
330
0
330
0
330
0
330
0
330
0
330
0
330
0
330
0
330
0
330
0
330
0
330
0
330
0
330
0
330
0
330
0
330
0
330
0
330
0
330
0
330
0
330
0
330
0
330
0
330
0
330
0
330
0
330
0
330
0
330
0
330
0
330
0
330
0
330
0
330
0
330
0
330
0
330
0
330
0
330
0
330
0
330
0
330
0
330
0
330
0
330
0
330
0
330
0
330
0
330
0
330
0
330
0
330
0
330
0
330
0
330
0
330
0
330
0
330
0
330
0
330
0
330
0
330
0
330
0
330
0
330
0
330
0
330
0
330
0
330
0
330
0
330
0
330
0
330
0
330
0
330
0
330
0
330
0
330
0
330
0
330
0
330
0
330
0
330
0
330
0
330
0
330
0
330
0
330
0
330
0
330
0
330
0
330
0
330
0
330
0
330
0
330
0
330
0
330
0
330
0
330
0
330
0
330
0
330
0
330
0
330
0
330
0
330
0
330
0
330
0
330
0
330
0
330
0
330
0
330
0
330
0
330
0
330
0
330
0
330
0
330
0
330
0
330
0
330
0
330
0
330
0
330
0
330
0
330
0
330
0
330
0
330
0
330
0
330
0
330
0
330
0
330
0
330
0
330
0
330
0
330
0
330
0
330
0
330
0
330
0
330
0
330
0
330
0
330
0
330
0
330
0
330
0
330
0
330
0
330
0
330
0
330
0
330
0
330
0
330
0
330
0
330
0
330
0
330
0
330
0
330
0
330
0
330
0
  0
DICTIONARY
  5
26F2A5
102
{ACAD_REACTORS
330
26F2A4
102
}
330
26F2A4
100
AcDbDictionary
281
     1
  0
DICTIONARY
  5
26F2A9
102
{ACAD_REACTORS
330
26F2A8
102
}
330
26F2A8
100
AcDbDictionary
281
     1
  0
DICTIONARY
  5
249D38
330
20
100
AcDbDictionary
280
     1
281
     1
  3
AcPublish_PlotSettingsOverride
360
249D39
  0
DICTIONARY
  5
8B7
330
8B6
100
AcDbDictionary
280
     1
281
     1
  3
BUMPTILE
360
8B9
  3
DIFFUSETILE
360
8B8
  3
OPACITYTILE
360
8BC
  3
REFLECTIONTILE
360
8BB
  3
REFRACTIONTILE
360
8BD
  3
SPECULARTILE
360
8BA
  0
DICTIONARY
  5
8AF
330
8AE
100
AcDbDictionary
280
     1
281
     1
  3
BUMPTILE
360
8B1
  3
DIFFUSETILE
360
8B0
  3
OPACITYTILE
360
8B4
  3
REFLECTIONTILE
360
8B3
  3
REFRACTIONTILE
360
8B5
  3
SPECULARTILE
360
8B2
  0
DICTIONARY
  5
8BF
330
8BE
100
AcDbDictionary
280
     1
281
     1
  3
BUMPTILE
360
8C1
  3
DIFFUSETILE
360
8C0
  3
FBXASSET
360
41921
  3
OPACITYTILE
360
8C4
  3
REFLECTIONTILE
360
8C3
  3
REFRACTIONTILE
360
8C5
  3
SPECULARTILE
360
8C2
  0
DICTIONARY
  5
26EE58
330
8E1
100
AcDbDictionary
280
     1
281
     1
  3
ACAD_ROUNDTRIP_2008_TABLESTYLE_CELLSTYLEMAP
360
26F48D
  0
PLOTSETTINGS
  5
249D39
102
{ACAD_REACTORS
330
249D38
102
}
330
249D38
100
AcDbPlotSettings
  1

  2
HP ColorLaserJet M253-M254
  4
ANSI_A_(8.50_x_11.00_Inches)
  6

 40
4.233333110809326
 41
4.23333740234375
 42
4.23333740234375
 43
4.23333740234375
 44
215.9000091552734
 45
279.3999938964844
 46
17.91184917924257
 47
0.0000000000000226
 48
1890.63659464598
 49
-573.9331600595034
140
2204.53433553356
141
-375.1097795312784
142
1.0
143
29.42791475508095
 70
 11444
 72
     0
 73
     1
 74
     4
  7
acadlt.ctb
 75
     0
147
0.0339813407889305
 76
     0
 77
     2
 78
   300
148
-48022.16950400786
149
14577.90226551139
1001
ACAD_PSEXT
1000
HP ColorLaserJet M253-M254
1000
HP ColorLaserJet M253-M254 PCL-6 (V4)
1000
USB001
1000

1070
     0
  0
XRECORD
  5
8B9
102
{ACAD_REACTORS
330
8B7
102
}
330
8B7
100
AcDbXrecord
280
     1
270
     1
271
     1
  0
XRECORD
  5
8B8
102
{ACAD_REACTORS
330
8B7
102
}
330
8B7
100
AcDbXrecord
280
     1
270
     1
271
     1
  0
XRECORD
  5
8BC
102
{ACAD_REACTORS
330
8B7
102
}
330
8B7
100
AcDbXrecord
280
     1
270
     1
271
     1
  0
XRECORD
  5
8BB
102
{ACAD_REACTORS
330
8B7
102
}
330
8B7
100
AcDbXrecord
280
     1
270
     1
271
     1
  0
XRECORD
  5
8BD
102
{ACAD_REACTORS
330
8B7
102
}
330
8B7
100
AcDbXrecord
280
     1
270
     1
271
     1
  0
XRECORD
  5
8BA
102
{ACAD_REACTORS
330
8B7
102
}
330
8B7
100
AcDbXrecord
280
     1
270
     1
271
     1
  0
XRECORD
  5
8B1
102
{ACAD_REACTORS
330
8AF
102
}
330
8AF
100
AcDbXrecord
280
     1
270
     1
271
     1
  0
XRECORD
  5
8B0
102
{ACAD_REACTORS
330
8AF
102
}
330
8AF
100
AcDbXrecord
280
     1
270
     1
271
     1
  0
XRECORD
  5
8B4
102
{ACAD_REACTORS
330
8AF
102
}
330
8AF
100
AcDbXrecord
280
     1
270
     1
271
     1
  0
XRECORD
  5
8B3
102
{ACAD_REACTORS
330
8AF
102
}
330
8AF
100
AcDbXrecord
280
     1
270
     1
271
     1
  0
XRECORD
  5
8B5
102
{ACAD_REACTORS
330
8AF
102
}
330
8AF
100
AcDbXrecord
280
     1
270
     1
271
     1
  0
XRECORD
  5
8B2
102
{ACAD_REACTORS
330
8AF
102
}
330
8AF
100
AcDbXrecord
280
     1
270
     1
271
     1
  0
XRECORD
  5
8C1
102
{ACAD_REACTORS
330
8BF
102
}
330
8BF
100
AcDbXrecord
280
     1
270
     1
271
     1
  0
XRECORD
  5
8C0
102
{ACAD_REACTORS
330
8BF
102
}
330
8BF
100
AcDbXrecord
280
     1
270
     1
271
     1
  0
XRECORD
  5
41921
102
{ACAD_REACTORS
330
8BF
102
}
330
8BF
100
AcDbXrecord
280
     1
 70
     1
 90
1959938040
 71
     1
  1
D3A7F0CA-245F-4254-AFA6-1AEB191BE395
311
504B030414000608080006886449135D3AB2D9000000200100004F00000042323141464634342D443242442D343743412D424438452D3746413933364232433445312F4173736574446174612F446566696E6974696F6E4974657261746F7250726F706572746965732E62696E454E3D4FC3400C3D18400C0CFC83AAFB711F
311
BD4015B5454D4F6582052696CABDB825D225A97289C4C8C8BF065B2DAAA5E7E7CF67FF08217E4F46A1B8207C93BF257EC606BB2ABC854FAC415C7125B65B88D7E7DE25859C7ADCC1107BDE7AA952C018A1C1764877E7D1510D3DC941BCE7A51BC27F21B1C2FE788CEFBF12F82566280FF913A484FD5CEDB65FAAC896DE4E96
311
53395D3B2D5D660B594CBC93CE7B9B152BB35A7BAF3A4CEDD0054CCA29BD39296F0ECDBE2A17B3BEAA71D4408DF371E8907E2AC70BABCD8334466AF76E1E73AD73633F668A27FF00504B0304140006080800068864496422203137010000300200004500000042323141464634342D443242442D343743412D424438452D37
311
46413933364232433445312F4173736574446174612F496E7374616E636550726F706572746965732E62696E7590BD4EC3400CC79D0609292EA80FD10186939AE4922A53BE8360242B4B9404CA40800A89352320010308040BBC01ACAC8CB002338FD085197C246DA1504BB67FFE9F7D77F201007CD64608127949718EF252
311
5EE4FDCD344E7BF956D22621D0DD6ED4F15DA67123625C33387323D764AA1B7AAAA57AA16E19B3E34131A2AB3C0835C36206E73AE3A6A6322FF202A676F58E6FFABEE58696781316D74E1F3F165EEC3A37482AC987B54D4C36B0BF7F48D472A02594CADACE90A6641AAC6C04531AC5133F3A65E2B2AADFEB8366554E44B1C3
311
F1C9E892892E80ECC1F9A3FD12FE1F15D78B7D0A1BD83314C5D6E6C9E3FD642FED31AF9F14599E89FF2A77202BF7CA1348CAB3F24AFC86CB20E10AAE828C31A6C419AE136F6041BC8D3BD0C05D3C243EC263D24FF08CF81C2F882FF18AF81A6F886F9BC917504B0304140006080800068864497D09B9F3790100005E060000
311
3D00000042323141464634342D443242442D343743412D424438452D3746413933364232433445312F536368656D61732F436F6D6D6F6E536368656D612E786D6CC595D16A83301486EFFB14E20B94B15B2DB42B6C42D9458BBB3F9AD32E2C2692448B6FBF18ADCBA22D0E847927497EBFF39FFFC468AB14EA53FE89056C56
311
817DA234D90735B0387C11452178B71A6E56D1DAACFCEC3A1E024AE2704B6AE03912B38667CAA9A682874159658CE6717806A6300C2402119C3571A86565DEAD7C27793C0C92272D29BF74AA2DD78166C9FEB6396090A181B2C4DD4A8BD49D9992D881C29EDDC7210369A2518216720F1AC6709EF84E0886C02DE01B2504C7
311
85CE50EE2C69D97BBD013EE11A2F28AD7E47FE8152CDF6F3D91ADA8B0CA269DFA765FB9326EF5098467A7D7E5C3E13791B2B3F029ECB694589B5A02FFED590FFF1434EBC8CD86085932F68F3A59B725CC2FDA87A9C8E5A0EA6714236234C604C5C8B8A695A32345415AA5BFD4B58E5201054B9A4E5E4F42DFCA92F6CAE4292
311
7F2CD606894F05D0EFDEBCC8393EDA03B382314FDA9D6989359D1C679BD7A787E3AB3FAB22E340D972B63B53E25CC22E707DE7FAB9C71BAD7FFD4FBE01504B030414000608080006886449317D3058AB040000AB1500003E00000042323141464634342D443242442D343743412D424438452D374641393336423243344531
311
2F536368656D61732F47656E65726963536368656D612E786D6CDD586D4FE33810FECEAFB0F27D4BE18ED5AD4491DA4570FD807A82E5B3E53A6EEB3B3B891CA7D0FBF537633B6ED27437A170D26A2B21F232F1BC3DCFCCD8D7D3B214F6896F84663767C4FDAE9FE7B764CBD424B917993092FBD7C9CDD9F539BC8A6233560A
311
2FF728B254980766419AA986388A4479BB2B82BC0E92AC2804332CE3C22D8E0251BA9244A693649A6EF17D0A8AC54A66D2CA3C4B48512D95E49364C554291262044BF34CED26893515DC3BE3C19CF23C7850FFDFAF367AD5CA29AD64542975A184169965A8C5A99FB71E3DE03BF5C8762758E0BF9D6BB61651775BE1703B16
311
F74F2758005FBD5BF35F466CA57839417BF8F26BAE72D36746C8FDC7E4FC791ED535723DCB7325984F32479BE87247F3E5DF82DB809F802DC59602A8E0EC26B31D59781924435823E6ADB9E6DA5387B29CA6C232A9CAB0AC476858F51918E457BE33B9260BBB1186D43C2A1D3E0F95DCA99C5987CDA60A595A47230FFDDF13
311
12143CB057725BBF449BDDE77D1623C51C87DA3198EAA504069005E7AA2A9188C7A230CFAC58831BC8DE868925432AD551B8F81C4D7C0A2F6ECE42FD21E47A9657595A9242188E945B8B48759971E3385ACA7FE1E945423454055DE9497219AF65096268E216447CC0357B0D5257A03ADC75E5BC43A83CC6E83C38141F1C4B
311
F392F17F568C0BCA2BA58E066F1624C857943816B86E6697952E28D3100C0025532A7FE17996014445CAB06E9793043C5DABBAE48D47975F0E7E31CC53BFCCBBA3FCE9623C1E0F8A7410F4811F16EA363A3D339A387201D1AC18108DC7490266028AEFEB8B597D3175B8090C99418C5D3A9CB698E46E327865F3CAD2BC605C
311
5AE80003F201E8ACCB87FBD833BACFC954AE5615B6B55E0DE8E3E8B78BABE867BC415FE34DCB5FE7E62087831D5462CFA22B96D630DBBBE5DA19B9C3573DC0F22CFC017B0762EA8DDC6DC7BA9BD4B5CA4BA09028A130F5861B630AB10E29BDDF7F3AACB0CA926A6805C7CBC39F72BD51F0678F57FD6345D5889582E652D84D
311
283810C260DB23BC823281530C76806F064A13B975A23D790A15FFDD89BAC47CBE85FA8755F67B1E7BB7A84BDC8E1E74156801DD08B844EDC887F5998148BDFCE39D11E8A215338EFE6FA1005166E93815EB61B8EDC405977055A08F21873ABF7CBCD2EFA4DAB4C0FD695F75165B618C4C05019803B21DCC3F08DCA8250C14
311
DD8E55031A468DFF09DDC19B21E8AE1DFFA5D05DFB2F613FF91AAADAC5E8AA45EB20D3D7700614B2D17858B6A1E6BFA9940DA054EDA885DD6FA92A9872F98EBE086C006F2434D4F6B8425F4C7E8A267C6C7C3638EFF3DCC07143495D1FA6387D0803D33FAD4F0BEABD437B53325370F8405EA4DD9CB87D6AE9362C95D5C059
311
605F53D17AD8C739F30715D552A815954A559A72B7F9B442C36687D9CAD443D6E72B1CB3EBF11185C8B7865077E4E84ECB0D2D2BA9E0700642590C80178C95400C3F3AFB0B1827FD456B94BC738BFA0DAC73BB6F846E1804AECBACB165DDFBFA04B121738C0D08B8E39EAEAFDDD6E8885430000C1F369BEF153A06D59FF68C
311
473F05837EECFD2F34AF3F5903DB5B7792A072CE54C634D0A3E7F0CF49D6DB7E00713CC67410F54BC66DDEA1063C823C41C3B47D9079A0A439DFE83C6EA31AA734F81051DE1A82AFCF5B87B3FF01504B03041400060808000688644979B77F2750010000C20300004500000042323141464634342D443242442D343743412D
311
424438452D3746413933364232433445312F536368656D61732F52656E6465724D6174657269616C536368656D612E786D6CAD93516BC23010C7DFFD14211F602A636FADA00E445036DAB95739D39B0DA489A451F1DBAFB9A4B5E2C660D8B7CBFDEF77C9DDBFC9B4AED1E5A2C40A2603465FB259BEB213A89467A80BB46B70
311
6825A8A0E29341326C149D7A063506F9DC5495D13D994F75BA4DB662B248F9B23A28AC503B70D2E805EA062E383B1C774A8A947F81AA91338B5018AD2E2977F6D8C4749FD03B5BFDC15C7BB8CAE0F250EADB227F28EFDDE249E2F99FCC7969A4401AA8A0B16FF3122C165B5A689C57CCD494E14CC10E9BAD7AA1D4FB669871
311
E18C2501F709EA78C36C2B69FAA31B0216B48D5E61BB95DF71B2B1D3C17B4ABB78C371C75CF672DE623F80DBC3B6513237CAD8FE0C3EA4765BE14F899FA57CF4F43C7EA160D10F66FD609AF2EB3D3C821138BCCFC3BA8633631482BE6BE9CC7EAF5A974607C7697B1E91626DC7CA9DDF02A1EA333851DE39E1EAF9A00DA5C9
311
F0E69FFD06504B030414000608080006886449FEA048F051000000570000004700000042323141464634342D443242442D343743412D424438452D3746413933364232433445312F4173736574446174612F41737365745461626C654F66436F6E74656E74732E62696E536160607031763477337076D435323175D3353132
311
35D175747334D33574747532B434747235B6341502AACB4D2C492DCA4CCC492C28484D2C4ACC4B4E050A82012F90744FCD03CA26072767A4E6260200504B030414000608080006886449F865834058000000680000004500000042323141464634342D443242442D343743412D424438452D3746413933364232433445312F
311
4173736574446174612F53747265616D56657273696F6E5461626C652E696E66558CBD0A80300C06F73E4B117FB66E451741D041DC5BF98480A492E4FDD18EAEC7DD4555D89EF28DF51A0B1BD8340C4DE7DD848B988C0ACF0649566493F2408C508DDEBB99D5129FF8F1AF8CF5B9503E20FAE5A16B5AF702504B0304140006
311
08080006886449F1791C5F340100009A0400003600000042323141464634342D443242442D343743412D424438452D3746413933364232433445312F4173736574446174612F636E782E786D6CCD94314FC3301085FF4AE43D765C214095E30AC1D209242A06B6AB7369AD3A76645F10FC7BEC3603A888A943D7F3BBF3F327
311
BF53ABCFC1551F18930DBE659237AC426F4267FDAE6513F5F53DAB565AC510E8878C551E066C592933AD76314CE35CEAB087C995AAB3FE30171F5242DAC0D6E173FF183CA1A7C42AE320A59625B3C701384C143A4C07DE0101973C620A53349827911D709E64220261C7F4A291B7B5947573B39177CBA659CAC5BB1245A9D5
311
360437EB6DBE2C86B132A75B996E9428C75A4DD1CE9AF216A6FFF2C8B7D62B91955A258A99C9DC415F63EE807174D6006574221842AAB3086150E224D64A1406BF483C616FBD2D2DEB6C0C28C4976C0F2359BC3A22FF79BD3C99B54F04DEE0F5F2387778790AAFC71FF4760AE43131D796937387DCFAFE022911C735924353
311
B68AFE06504B03041400060808000688644999E166A2080100004F0300003400000042323141464634342D443242442D343743412D424438452D3746413933364232433445312F536368656D61732F636E782E786D6CCD933B4F04211485FFCA847E786C8C9A0DC3161656366A6587CCDD5DB2C09DF030FAEF85916237B1D3
311
623B387C21E71C2E72F7E9DDF00131590C131194930182C1D986C3444ADE8FF764D8291911F3194686A03D4CA4C944C943C4B2746986BD2EAEA9CE8653171FD07B0C2FE6085E93C1389DD244D2BAA5BA649C219DE8ACB3A682464858A2817A43B61EFA0D2682CE3013B5E1E2761462E437AFE26ECBF9566CDE246BA492EF88
311
AEF3366488B80C06EB22543B5CB276AC6489B6332D0351E7DE686D43B24A289972AC1D74327F2D95D4CBE2ACD1B956C556F0875192B5A817811F2140B4E63A135F98FBB7C8CF1066884FF595A2D5EE3A93FFE6F16F05B075F6EB08B4AFA0BE01504B030414000608080006886449410A3D5871000000A40000002C00000042
311
323141464634342D443242442D343743412D424438452D3746413933364232433445312F636E782E786D6C55CC4D0E82301086E1AB34B31774E7A22D31F1069E60020334B633A63FC6E34B0909B07DDE2F9FEE7EC1AB2FC5E4840DDC9A2B28E25E06C7938192C7CB1D54677514C9871928C640062A83D55394F2D968A0118B
311
AFEA1DBF377CA444F98919176EAB9FEAAB9F2960DA5BBB1E2ED3FA6FFF504B030414000608080006886449CFDC83907F000000A300000007000000636E782E786D6C4D8CD10E822018465F85FDF754104BDB40072AEFE1121D13A191B41E3F685E74F56D67DF39BCFD6C0EBD4D7CD9E00590D30590F18F3059BF0848FB8C6B
311
406DC36308FBDF0D901F3723A06068F812437A1E6832F3985CA1CEFAF5808A12A93563B8A7AAC7ACEA24567D3DE04ACBFBF5A668C706928D7351F2FC7A794BBEF902504B03041400060808000688644916E99B5DA600000035010000130000005B436F6E74656E745F54797065735D2E786D6C9590410E82301045AFD2740F
311
4517C6180A0BF5065E60AC53688469D30E066F6F91AD9AB89CF9FFFD3F99BA9DC7413C3026E749CB4D59498164FCCD51A7E5C4B6D84BD136F5E5193089ECA5A465CF1C0E4A25D3E308A9F401292BD6C711388FB15301CC1D3A54DBAADA29E38991B8E0254336F5092D4C038BF39CD76B6FC6A538AEBEA54A4B08617006389F
311
A516557DE4AE8E7E70DE30729138228C5F021CD93F02D4FB0DCD0B504B0304140006080800068864493DEE336E64000000790000001B0000006175746F6465736B2D64657369676E2D7061636B6167652E786D6C35CBC10E83200C00D05F21DCA56CA76D41FC96062B120735B69A7DBE268BB7777961F8D5AF396893C2ADB7
311
0FE7ADA196782C2DF776D7A97B5933C430F15651E5469C55D70F80A4992A3ADC954792C525AE70A1E4D6AD9816CC044FEFDF01FE3FDE907802504B0304140006080800068864491DFF62D2F8000000960100003700000042323141464634342D443242442D343743412D424438452D3746413933364232433445312F417373
311
6574446174612F636F72652E786D6C8550CB6E833010FC15B477830D86D2C8384A42FEA0A7DE2CE3502BC1467E54FDFCDA814AEDA9A75DCDCECCEE0E3B7E2D8FE25339AFAD198094180A65A49DB4990788E1867A288E9C396BC32F1A14462C6A800C0367B3B371DD21694D5026A3C64E6A0785F72A40211FA919C0CB0FB588
311
52C49018FE5EAE42DEC5AC4A526E3CCE62D4D32ED55372D337AD1C70DAB5DD485E31BA5C1B8228AEAFA8BF608ACEA72B6D9B33EDDB7E6455167316F4F2B35D3A25829A80D79874881084E91B7939607C20F53BAB3293331F5CFA795F9ABF037ECA578F2208566DD33FAE719DFE778DDA84A6DE5D3785074ED291CF0167554E
311
29956784A9E644F937504B03041400060808000688644921B24EB7F7000000940100003500000042323141464634342D443242442D343743412D424438452D3746413933364232433445312F536368656D61732F636F72652E786D6C8550CB6E833010FC15B477830D86D2C8386A12BEA03DF56619875A0936F2A3EAE7D726
311
546A4F3DED6A76667677D8F16BB9179FCA796DCD00A4C4502823EDA4CD3C400C57D44371E4CC591B7ED1A0306251036418389B9D8DEB0E496B8232193576523B28BC57010A794FCD005E7EA845942286C4F0B77215F226665592F2C1E32C463DED523D25377DD5CA01A75DDB5DC83346E7B12188E27A44FD1953747A1969DB
311
9C68DFF61756653167412F3FDBA55322A809788D4987084198BE91A703C60752BFB32A3339F3C1A59FF7A5F93BE0AFDB9D9E558FD91FCFB84EFF7B466D4253EF9E0F85074ED289DB80B32A6794CA1660AA394FFE0D504B030414000608080006886449525BFE2703010000D70100002D00000042323141464634342D443242
311
442D343743412D424438452D3746413933364232433445312F636F72652E786D6C9551416E833010FC0ADABB013B34A491710421BCA0A7DE5CBCA156828DB0A9FAFCDA814AEDAD3DAD359ED9DD99E5A7CFF19E7CE0ECB43515D03487044D6F953643058BBF92032427C1676BFD0F1A24468E58418441F061B6CBB441BD351E
311
4D448D55B881D239F490F4F7F0A8C0F5EF38CA542E3E30DC2D9D647F9303A6345D79827B3D7E4BFB19A5470582E5744F282579F142CB639E1F297BE559640ABE68E3776C1B86E31BAAC44E3E5802F1C4B3F537B016AD368E5661477DD538836818ADBBAE2848CB9A9614E5B9264D7BB890B2AB9F77FB869D8B0B0D4D825870
311
E7E790CCD62466F057F92AFCE56C99D43F9DAD0A0722EEF3B02C7816630EE5718350E349C417504B03041400060808000688644999A6FC4C06010000B201000008000000636F72652E786D6C8D50C16E842014FC15F2EE28285ABB4136DD5DFFA0A7DEA8B096AC8211DCB47F5F586DD2DE7A7A6466DE9B61F8F1731AD15D2F
311
DE38DB02CD08206D7BA78C1D5A58C31537808E822FCE855F3240564EBA850483E0C3E2D679877A6783B609B54EE91D94DEEB00A81FE3A305DF7FE84966720D51E16FD92CFB9B1C7446B34D277830D3CF6ABF6819B40251105A634A3161AFF4E940C881166F3C4F4AC1D7D5A8DDCAA8E86EAE462F20585DD517FA4CF0B92B29
311
66A4E87073260C9F5E3A569527D654CD85E76959701F96F8E7FD48CC199097F7E4CBF38D12FCDDB97117C4500A393B7E81203C4FC49FD0EBACFE11DAD85016FBC16DC383A031D08388C6A9C1381EF5C699DA16DF504B0102140014000608080006886449135D3AB2D9000000200100004F0000000000000000000000000000
311
00000042323141464634342D443242442D343743412D424438452D3746413933364232433445312F4173736574446174612F446566696E6974696F6E4974657261746F7250726F706572746965732E62696E504B01021400140006080800068864496422203137010000300200004500000000000000000000000000460100
311
0042323141464634342D443242442D343743412D424438452D3746413933364232433445312F4173736574446174612F496E7374616E636550726F706572746965732E62696E504B01021400140006080800068864497D09B9F3790100005E0600003D00000000000000000000000000E002000042323141464634342D4432
311
42442D343743412D424438452D3746413933364232433445312F536368656D61732F436F6D6D6F6E536368656D612E786D6C504B0102140014000608080006886449317D3058AB040000AB1500003E00000000000000000000000000B404000042323141464634342D443242442D343743412D424438452D37464139333642
311
32433445312F536368656D61732F47656E65726963536368656D612E786D6C504B010214001400060808000688644979B77F2750010000C20300004500000000000000000000000000BB09000042323141464634342D443242442D343743412D424438452D3746413933364232433445312F536368656D61732F52656E6465
311
724D6174657269616C536368656D612E786D6C504B0102140014000608080006886449FEA048F0510000005700000047000000000000000000000000006E0B000042323141464634342D443242442D343743412D424438452D3746413933364232433445312F4173736574446174612F41737365745461626C654F66436F6E
311
74656E74732E62696E504B0102140014000608080006886449F865834058000000680000004500000000000000000000000000240C000042323141464634342D443242442D343743412D424438452D3746413933364232433445312F4173736574446174612F53747265616D56657273696F6E5461626C652E696E66504B01
311
02140014000608080006886449F1791C5F340100009A0400003600000000000000000000000000DF0C000042323141464634342D443242442D343743412D424438452D3746413933364232433445312F4173736574446174612F636E782E786D6C504B010214001400060808000688644999E166A2080100004F0300003400
311
000000000000000000000000670E000042323141464634342D443242442D343743412D424438452D3746413933364232433445312F536368656D61732F636E782E786D6C504B0102140014000608080006886449410A3D5871000000A40000002C00000000000000000000000000C10F000042323141464634342D44324244
311
2D343743412D424438452D3746413933364232433445312F636E782E786D6C504B0102140014000608080006886449CFDC83907F000000A300000007000000000000000000000000007C100000636E782E786D6C504B010214001400060808000688644916E99B5DA600000035010000130000000000000000000000000020
311
1100005B436F6E74656E745F54797065735D2E786D6C504B01021400140006080800068864493DEE336E64000000790000001B00000000000000000000000000F71100006175746F6465736B2D64657369676E2D7061636B6167652E786D6C504B01021400140006080800068864491DFF62D2F80000009601000037000000
311
000000000000000000009412000042323141464634342D443242442D343743412D424438452D3746413933364232433445312F4173736574446174612F636F72652E786D6C504B010214001400060808000688644921B24EB7F7000000940100003500000000000000000000000000E113000042323141464634342D443242
311
442D343743412D424438452D3746413933364232433445312F536368656D61732F636F72652E786D6C504B0102140014000608080006886449525BFE2703010000D70100002D000000000000000000000000002B15000042323141464634342D443242442D343743412D424438452D3746413933364232433445312F636F72
311
652E786D6C504B010214001400060808000688644999A6FC4C06010000B2010000080000000000000000000000000079160000636F72652E786D6C504B050600000000110011005A060000A51700000000
310
504B030414000608080006886449000000000000000000000000370000006662782F37463846373337322D324239462D343132452D414444372D4343433046383146443743432F617474726962757465732E62696E504B030414000608080006886449000000000000000000000000350000006662782F3746384637333732
310
2D324239462D343132452D414444372D4343433046383146443743432F76657274696365732E62696E504B030414000608080006886449F270F1330600000004000000360000006662782F37463846373337322D324239462D343132452D414444372D4343433046383146443743432F747269616E676C65732E62696E6366
310
60600000504B03041400060808000688644951464CB48900000043010000360000006662782F37463846373337322D324239462D343132452D414444372D4343433046383146443743432F6469726563746F72792E786D6C9D8F310EC2300C45AF127987122606C71DD918B841D4B851A43646695A717C52A85029031293A5
310
A76FBF6FACEF7DA7264E43906840EF0FA03836E242F406C6DCEE4EA06AC22492573150D1F66C60C640E8938CB705396EEDD86DE9B5042FE27813D640EA63BB001C722AF6E55CB61E4863F58284D5D3F53DD715CE1C3985E63FD7F1B7EBDD617E9F1E504B030414000608080006886449B5132CB742070000201C0000340000
310
006662782F37463846373337322D324239462D343132452D414444372D4343433046383146443743432F6F626A656374732E786D6CDD59596FDB3810FE2B82F665F7419725A771E1B8F011074691B6A8D1C5BE09B44C3BDC5007282971F6D7EF90226551916DA507B05807B0158A1ACE7C738FC61F0E31359E30CB499ADC98
310
9EED9A064EA2744B92FD8D59163BEBDA343E4C8C314BD3A2B1CF341214E31B932F9B93F19EA5652697B678874ADA5E5DCEFE32F20827D834228AF2FCC6CCA3071C231B9545BAC5F9A3BD4505B2F7BB83EDD9D5469DEC9EA1ECA1755486184E0A6015D613A02239F0F47F4124673276F8066D9BDF6FDBE0CC364708AE334A92
310
BC4049F48AABD67183135CB58EF3BD60713B188EAC6110F8567035F0ACD972B6B0BC77BE3BBF9ACF47D3DB91694CC69B34A5B502329C6C418B2FE6C41B3BFC4E2DBE44A18BEF284D121C4934BB366CB1A44B70DEC64403D613A2351452C9DA58F07B0A7F625B2F50349634B49570EAB769BDE9E66F0021EF63A52CC7DCCAF3
310
8281AE25F6953FB863A75AD5F4427223460566045183920D430C14045B2B056964B8B7705206C74C6851D16BF20A867DD997BAB8DC959472FF3527C2D342F0475CE48233F20F6647EE9BA7014F206D4992E25A0A5BBC6440623476C46275CF1FC89B1590C68EA23D580B88C937F983165E731E0B560B73F271B939AC797CE8
310
3E3C63698659C12D4F38B3F43BA5C1866981F1F500A5C255D7DD1195AF00FD2740BEE6C51883E61839048740C9CE5092EF521683760CD7B05CF8720D7EF9EA6AECD40F4F0C438B95A73005B7FD49986A62686737209D8C9FC0E853E64BE1D611A260D3F724E17E0E8662D0149620DEEF360773B282600A8BF014A2203DFC8D
310
1D7E69C04F4507E24D4B435DE1B787A294C3B4FDECA8AB3BB01946A25A559A8CA7F01DFE147CA78BF5C775C97628C2F7D2B117784712524032ED6648035D73F96FAB4FC223EF68BA41F4F8B4B6298263F6298F1B1D6A594BB518422FC0094FC39566C4CA3D016FA71425382D73B9DE15A7A294A62CDCBC84950B779EF5A7B2
310
81EA3069009DB10C927BC448C6313127525B7520B41B82828521262D705F6935DC947116A2382D131E6A5F9B629B0F8833DC1281AAA0A60C5B79AD22BB25BB5D9943F0EA2439D78094FEAC0857161E401CEBE297E11D439044D324249083C1593A4FD00EA8C13BCF738EE92E24949671B82314F24818A3EC04FD9E123433D7
310
237E794ED9B693A06E59CA27950D71C025B00A2495ADAA982F75CAF013E165A6C8672A1B683B641D6A4EFC13E982678A0E4095315686EF4FDF2DDDF9D41A04C3A5150C8681355D4EAF2C6F7A3BF346DEECD61F81FB4B2B11081CA35533DF812A7999A3F95FF150C69B04110A373805B4CDDE7F10D9F3C681D0E8CC86D3C5C0
310
9F5E5BD7CBC0B582E16066CDFC4560058BC560389B7BF3E562E1309CA7258B70EE048E1B2A93CC92FD29AEEA58CAB316C80FDF1252286B2E273BA5AFB630FFE318DACE099A12FFAB41B48E5D1D0561DF20CA1F6D8750143DF214154650F575BA4F2B88B6F9E88A736F8CCBAEEDBBE2E379A3813B1A5C8FAE6A633F1BA8C539
310
3F1CE7BA2488A0EF2C8B30CD50448AEE84DAC2A5679C7E536EB17D6F68003AF5777DC8F93C230F09498CF638DC21DE257404C64B1274E6B03D4DF39C2438175DDEABEAAF45D3B58FD154AAB2C308491EC6B840DF637FA26D68D934C4661A423F5AF089C0C5AAA03668D9819CA2C8BB5F48DC42FE9730477146AB4EF71206DE
310
4059B3EA71BA2C8E33CD8F78027B0B5111BA5B2C061797A8D7ECABFAA0536B6DEAA3EF267F021E55D7FC4278D411FD4B277BE88DF8E71A82CAD5D0F3DF29455CC24A1D55F03E8E96D079462FE13326FB875E85663F9D344AB6AAA82E700C6D2C2A4AD6CB5FAF86EEAB83645C683944E3A4371687A27F531D1CA0271AB853E5
310
6DE318A843490273AE5E82BC92A2D384852EC44C8F8FAEDEE0D76795DDA4FAC3F1F29757CC4DE78BA1D0EB8343A08C5E461FADA6EEACBAB57A287F46450481742D7EAD1978C4166F8F8D9946AEAB4457F5E9A5EA79C5036A0C135BC4E3EC3DBFA05F11A81ABAE7DCB9AB8A36A75A5FF1C466C370FAC887C6B44EEBF3DDBA45
310
05567A3FFD8563849F5B14E4EA9C77C367487D5B1D7BFE160529D1B7D599C7FF131D855260A3B38069709E52024379BC35F63885EC0D63871EDD068B712EB2F2B14B516F047A3CFD54CD540BB4A1AAC7891E100CA6A9ECC5CA0886A290316F4CB96EFC0663503E8914C329FB11DA3019C34CA364E4C6048B2D08745BF606C6
310
59627828A8B7C695E0D828D9F37C5F3D55FF7F7CEC55F755EFE9838B944C7326286C33F19E00AABEEAC664FCFDA22B760C54C0E5A62C6A618E0B47692408EA8540251C4CFD1E25BC072828CECBE5D9628FD690F69ACC9FB5838AAA5520B617E3F5864D4E175F1C3E195F7D36325AEEB93ACF75BF1A258B77DDB4ACA6506330
310
0C296686780D397FEF7C6129BC628A8D250123307E3F5C5FFDE1CCD3384E936AC999CA1755C6FA015E3B6D1D35F2CB9D81EB058E9802C8B17EB84139B6D1367F8405502D237C365A41AC19401D4D1B06A034C275018F69FB570B43D64610F395C534C32E8747CCF40D7024FE2E87BB4D7343630009BE005C899BC70BB53076
310
180CC127FF02504B0304140006080800068864499F34E6223D01000046050000300000006662782F37463846373337322D324239462D343132452D414444372D4343433046383146443743432F636E782E786D6CCD94C14A033110865F25E4BE9B4D1195924DC1834FE041BC65B3D3356D36599289D8B737A9DBAA48C543A1
310
BD85C93FF07F333F2356EFA3256F10A2F1AEA5BC6E2801A77D6FDCD0D284EBEA9E929514C17BFC26A3C4A9115A5ACA548A21F834CDA51ED62AD952B5C66DE7A2420CA64B0891126D558C2D8DFA154655AB84BE87B8AD7B85AAE67580E853D090FBD18C30F7EB000AA1A772D1F0DB8AF3AAB979E277CBA659F2C58B60452945
310
E7BD9DF5C621043F11EDF3C365338D60E55B8A14CCAC2904547E39AB3BE304CBFF52C4ECD60DB30E7753D14D93355A611E13F31A01AB2C02350AF629968215DE1FD48F0FCF0707A4370134FAB0BBD000F8A9011C8DD53909FFE3DF0BFFC6F6DD26E35E6ADB2761675B67433DA435E6B8FEDE7F4E917283BDBED01F8D9D3FF3
310
F994A0D1D7877CF0752662B63F7979E9E502CA0F504B030414000608080006886449E828EE517D000000A30000000B0000006662782F636E782E786D6C4D8CD10AC22018465F45FE7B6B5AA0813A4AF33D467343723A6C468F9FC62EBAFAE0F09D23FACF12D0DBE5974F51023974805C7CA4D1C75942D926CC01F54AE494B6
310
BF1BA0382C4E42C3A0C49C53597734BA6928A1D1E0E37387CC72CB4E8C627ABB587C26F48EAFC630ACB5EE2C27D630ADAB716C4A9D5FAF6ECBAB2F504B030414000608080006886449A6D797065F0000008200000007000000636E782E786D6C4DCB3B0E80201045D1AD90E9FD7516806B51190811670C8A61F982B1B0BAC9
310
C97B72CA7B1037C6D3332918DA1E04D2CAC69353902EDB8C20262D23F3F59B81A079470595414B17391D1F19B4730A5583A7ED43BBE4025D9592775E5ADFFA01504B0304140006080800068864494FEB6A7CA0000000F4000000130000005B436F6E74656E745F54797065735D2E786D6C7D8F4B0EC2300C44AF1279DFA6B0
310
400835ED02B8011730C16D239A8F121795DB93D02D6269CFBC19BBED573B8B17C564BC53B0AB1B10E4B47F18372A5878A88E20FAAEBDBD032591BD2E299898C349CAA427B2986A1FC86565F0D122E7318E32A07EE24872DF3407A9BD63725C71C980AEBDD080CBCCE2BAE6F5D69B7110E7CD57AA146008B3D1C8F92C5954F9
310
93BB1BF787F39A89ABC491D09600F9FDA2FB00504B0304140006080800068864493DEE336E64000000790000001B0000006175746F6465736B2D64657369676E2D7061636B6167652E786D6C35CBC10E83200C00D05F21DCA56CA76D41FC96062B120735B69A7DBE268BB7777961F8D5AF396893C2ADB70FE7ADA196782C2D
310
F776D7A97B5933C430F15651E5469C55D70F80A4992A3ADC954792C525AE70A1E4D6AD9816CC044FEFDF01FE3FDE907802504B030414000608080006886449B63C1038F7000000960100003B0000006662782F37463846373337322D324239462D343132452D414444372D4343433046383146443743432F7265736F757263
310
65732F636F72652E786D6C8550496EC3300CFC8AC1BB6CCB3B025901DCE4073DF526C88C2324960C2D459F5F297681F6D41389E1CC901C76FE5A9FD9275AA78C1E81E62564A8A599955E4608FE4606C8CE9C5963FC2F1A645AAC38428281B3C59AB01D9034DAA34EA836331EA0700E3D64F2199B119CBCE32A72117C64B847
310
BE09F9100BE634DF799C85A0E643AAE6E8A66E0A2DF0A96DDBAA992EA4ABA69A3403EDC9707DAB4877696ADA5FEBA96D7A562431675EAD3FDBA545E171065E95B4239492B279A7FDA92C4FB4FA60456272E6BC8D3F1F4BD377C02D3A13AC44C78A7DFAC7356CF3FFAE41695F5787EBAE70C0693CF235E0AC4829C5F28A30D6
310
9428FF06504B0304140006080800068864496C003093F2000000B1010000310000006662782F37463846373337322D324239462D343132452D414444372D4343433046383146443743432F636F72652E786D6C8D50CB6EC32010FC156BEFD840A2E24698A8B5EB2FE8A93784898B1283C5A3EAE71762576A6F392D9A9D6166
310
879FBF975BF5A57D30CE76406A0C95B6CA4DC6CE1DA478412D5467C1BD73F10F0D2A2B17DD418141F0D9BBB4EE9072366A5B50EB26BD8332041DA152B7FCE820A84FBDC85AA69819E15AAF525DE5AC6B526F3CC1A3597EA5CA6B19F5048262F2840841F8F84ED809E313A11FBC294CC15332D36E65A6EC6E2E467B106C6C47
310
766014D1D7E7111D097D432FC3C050DFF7786CC938B0BEE74D110B1EA2CF37EF9F94EB1E956FC27F99D33A3D90D9D878A0BBE1A6082048CE735F08DE9402F3B8B79B67295BFC00504B03041400060808000688644926F54B9F53010000DD0200000C0000006662782F636F72652E786D6C8D52DB8E832014FC15C33B2A5E6A
310
D3204DDCF60FF669DF28524BAA60104C3F7FC14B5C1FB6BB314132E79C993313F0F9D5B5C1C8F520942C010A631070C9542D6453026BEEF0088233C15A29F3A30D049276BC041E0604375AD97E819892864B8F4A55F305A4C3C00D0858EB2E2518D8837734A4D6B88EE119F6943D69C34314CE7D045B2BEA6554D48E4DDC05
310
D78054799E2759758187A44A617644053C5E3F1278B864292AAE699567058EFC30C14674AB3AD39C1A5E0392C4E800118271F6898A531C9F50F28523DF49F060B4F3BC887A7780DC6F2F1CCDF88ECFF6F5DF7C564893260BDF3C310082DC7A5381E0C8E7E37E5378FB0C9DB0CBCFD05BBB5A783A68E4CC289DB94AADEC561A
310
696BB9A38E83E9C3D15C75CC13C16F3CC91B9EF71C2E282A1BB71A35EE7AB3C6ABEF77EAB986A3790552E98EB6DB72F38ADBB909ED2CADE34CB54AFF677AB5BA8619F98749BE01504B0304140006080800068864490AA4200705010000B201000008000000636F72652E786D6C8D50CB6EC32010FC15B4776CE3B7224C2437
310
F9839E7AA386B828365806A2F6EF0B3195DA5B4F8B66667786A1E7CF75410FB95B65F400242B00493D19A1F43C807737DC033A33BA1BE37EC90069BECA01220C8CCEBBF15B8226A39DD411D546C804726BA503342DE131809D3EE4CA33EE5D50D87BB6F1E9CE679991ECD031EAD4FAB33AED923B29809505693121B8A85F49
310
772A8A1329DF681E958C7AAF44B25222B8AB9B923BB0B1699AB21E2FB82DC70AD73DE9707F7D29717BA92BD25DABB1A93B9AC76546ADDBC39FD39190D321CB1FD197E607C5E8BB314B1284500219BD7C012B681E893FA1FD26FE115A695795E9E0B161819110E84904E3D86018CF7AC38C6DB36F504B010214001400060808
310
00068864490000000000000000000000003700000000000000000000000000000000006662782F37463846373337322D324239462D343132452D414444372D4343433046383146443743432F617474726962757465732E62696E504B0102140014000608080006886449000000000000000000000000350000000000000000
310
0000000000550000006662782F37463846373337322D324239462D343132452D414444372D4343433046383146443743432F76657274696365732E62696E504B0102140014000608080006886449F270F13306000000040000003600000000000000000000000000A80000006662782F37463846373337322D324239462D34
310
3132452D414444372D4343433046383146443743432F747269616E676C65732E62696E504B010214001400060808000688644951464CB489000000430100003600000000000000000000000000020100006662782F37463846373337322D324239462D343132452D414444372D4343433046383146443743432F6469726563
310
746F72792E786D6C504B0102140014000608080006886449B5132CB742070000201C00003400000000000000000000000000DF0100006662782F37463846373337322D324239462D343132452D414444372D4343433046383146443743432F6F626A656374732E786D6C504B01021400140006080800068864499F34E6223D
310
010000460500003000000000000000000000000000730900006662782F37463846373337322D324239462D343132452D414444372D4343433046383146443743432F636E782E786D6C504B0102140014000608080006886449E828EE517D000000A30000000B00000000000000000000000000FE0A00006662782F636E782E
310
786D6C504B0102140014000608080006886449A6D797065F000000820000000700000000000000000000000000A40B0000636E782E786D6C504B01021400140006080800068864494FEB6A7CA0000000F40000001300000000000000000000000000280C00005B436F6E74656E745F54797065735D2E786D6C504B01021400
310
140006080800068864493DEE336E64000000790000001B00000000000000000000000000F90C00006175746F6465736B2D64657369676E2D7061636B6167652E786D6C504B0102140014000608080006886449B63C1038F7000000960100003B00000000000000000000000000960D00006662782F37463846373337322D32
310
4239462D343132452D414444372D4343433046383146443743432F7265736F75726365732F636F72652E786D6C504B01021400140006080800068864496C003093F2000000B10100003100000000000000000000000000E60E00006662782F37463846373337322D324239462D343132452D414444372D4343433046383146
310
443743432F636F72652E786D6C504B010214001400060808000688644926F54B9F53010000DD0200000C00000000000000000000000000271000006662782F636F72652E786D6C504B01021400140006080800068864490AA4200705010000B20100000800000000000000000000000000A4110000636F72652E786D6C504B
310
0506000000000E000E0080040000CF1200000000
  0
XRECORD
  5
8C4
102
{ACAD_REACTORS
330
8BF
102
}
330
8BF
100
AcDbXrecord
280
     1
270
     1
271
     1
  0
XRECORD
  5
8C3
102
{ACAD_REACTORS
330
8BF
102
}
330
8BF
100
AcDbXrecord
280
     1
270
     1
271
     1
  0
XRECORD
  5
8C5
102
{ACAD_REACTORS
330
8BF
102
}
330
8BF
100
AcDbXrecord
280
     1
270
     1
271
     1
  0
XRECORD
  5
8C2
102
{ACAD_REACTORS
330
8BF
102
}
330
8BF
100
AcDbXrecord
280
     1
270
     1
271
     1
  0
CELLSTYLEMAP
  5
26F48D
102
{ACAD_REACTORS
330
26EE58
102
}
330
26EE58
100
AcDbCellStyleMap
 90
        3
300
CELLSTYLE
  1
TABLEFORMAT_BEGIN
 90
        5
170
     1
 91
        0
 92
    32768
 62
   257
 93
        1
300
CONTENTFORMAT
  1
CONTENTFORMAT_BEGIN
 90
        0
 91
        0
 92
      512
 93
        0
300

 40
0.0
140
1.0
 94
        5
 62
     0
340
17
144
1.25
309
CONTENTFORMAT_END
171
     1
301
MARGIN
  1
CELLMARGIN_BEGIN
 40
0.06
 40
0.06
 40
0.06
 40
0.06
 40
0.18
 40
0.18
309
CELLMARGIN_END
 94
        6
 95
        1
302
GRIDFORMAT
  1
GRIDFORMAT_BEGIN
 90
        0
 91
        1
 62
     0
 92
       -2
340
0
 93
        0
 40
0.045
309
GRIDFORMAT_END
 95
        2
302
GRIDFORMAT
  1
GRIDFORMAT_BEGIN
 90
        0
 91
        1
 62
     0
 92
       -2
340
0
 93
        0
 40
0.045
309
GRIDFORMAT_END
 95
        4
302
GRIDFORMAT
  1
GRIDFORMAT_BEGIN
 90
        0
 91
        1
 62
     0
 92
       -2
340
0
 93
        0
 40
0.045
309
GRIDFORMAT_END
 95
        8
302
GRIDFORMAT
  1
GRIDFORMAT_BEGIN
 90
        0
 91
        1
 62
     0
 92
       -2
340
0
 93
        0
 40
0.045
309
GRIDFORMAT_END
 95
       16
302
GRIDFORMAT
  1
GRIDFORMAT_BEGIN
 90
        0
 91
        1
 62
     0
 92
       -2
340
0
 93
        0
 40
0.045
309
GRIDFORMAT_END
 95
       32
302
GRIDFORMAT
  1
GRIDFORMAT_BEGIN
 90
        0
 91
        1
 62
     0
 92
       -2
340
0
 93
        0
 40
0.045
309
GRIDFORMAT_END
309
TABLEFORMAT_END
  1
CELLSTYLE_BEGIN
 90
        1
 91
        1
300
_TITLE
309
CELLSTYLE_END
300
CELLSTYLE
  1
TABLEFORMAT_BEGIN
 90
        5
170
     1
 91
        0
 92
        0
 62
   257
 93
        1
300
CONTENTFORMAT
  1
CONTENTFORMAT_BEGIN
 90
        0
 91
        0
 92
      512
 93
        0
300

 40
0.0
140
1.0
 94
        5
 62
     0
340
17
144
1.25
309
CONTENTFORMAT_END
171
     1
301
MARGIN
  1
CELLMARGIN_BEGIN
 40
0.06
 40
0.06
 40
0.06
 40
0.06
 40
0.18
 40
0.18
309
CELLMARGIN_END
 94
        6
 95
        1
302
GRIDFORMAT
  1
GRIDFORMAT_BEGIN
 90
        0
 91
        1
 62
     0
 92
       -2
340
0
 93
        0
 40
0.045
309
GRIDFORMAT_END
 95
        2
302
GRIDFORMAT
  1
GRIDFORMAT_BEGIN
 90
        0
 91
        1
 62
     0
 92
       -2
340
0
 93
        0
 40
0.045
309
GRIDFORMAT_END
 95
        4
302
GRIDFORMAT
  1
GRIDFORMAT_BEGIN
 90
        0
 91
        1
 62
     0
 92
       -2
340
0
 93
        0
 40
0.045
309
GRIDFORMAT_END
 95
        8
302
GRIDFORMAT
  1
GRIDFORMAT_BEGIN
 90
        0
 91
        1
 62
     0
 92
       -2
340
0
 93
        0
 40
0.045
309
GRIDFORMAT_END
 95
       16
302
GRIDFORMAT
  1
GRIDFORMAT_BEGIN
 90
        0
 91
        1
 62
     0
 92
       -2
340
0
 93
        0
 40
0.045
309
GRIDFORMAT_END
 95
       32
302
GRIDFORMAT
  1
GRIDFORMAT_BEGIN
 90
        0
 91
        1
 62
     0
 92
       -2
340
0
 93
        0
 40
0.045
309
GRIDFORMAT_END
309
TABLEFORMAT_END
  1
CELLSTYLE_BEGIN
 90
        2
 91
        1
300
_HEADER
309
CELLSTYLE_END
300
CELLSTYLE
  1
TABLEFORMAT_BEGIN
 90
        5
170
     1
 91
        0
 92
        0
 62
   257
 93
        1
300
CONTENTFORMAT
  1
CONTENTFORMAT_BEGIN
 90
        0
 91
        0
 92
      512
 93
        0
300

 40
0.0
140
1.0
 94
        2
 62
     0
340
17
144
1.25
309
CONTENTFORMAT_END
171
     1
301
MARGIN
  1
CELLMARGIN_BEGIN
 40
0.06
 40
0.06
 40
0.06
 40
0.06
 40
0.18
 40
0.18
309
CELLMARGIN_END
 94
        6
 95
        1
302
GRIDFORMAT
  1
GRIDFORMAT_BEGIN
 90
        0
 91
        1
 62
     0
 92
       -2
340
0
 93
        0
 40
0.045
309
GRIDFORMAT_END
 95
        2
302
GRIDFORMAT
  1
GRIDFORMAT_BEGIN
 90
        0
 91
        1
 62
     0
 92
       -2
340
0
 93
        0
 40
0.045
309
GRIDFORMAT_END
 95
        4
302
GRIDFORMAT
  1
GRIDFORMAT_BEGIN
 90
        0
 91
        1
 62
     0
 92
       -2
340
0
 93
        0
 40
0.045
309
GRIDFORMAT_END
 95
        8
302
GRIDFORMAT
  1
GRIDFORMAT_BEGIN
 90
        0
 91
        1
 62
     0
 92
       -2
340
0
 93
        0
 40
0.045
309
GRIDFORMAT_END
 95
       16
302
GRIDFORMAT
  1
GRIDFORMAT_BEGIN
 90
        0
 91
        1
 62
     0
 92
       -2
340
0
 93
        0
 40
0.045
309
GRIDFORMAT_END
 95
       32
302
GRIDFORMAT
  1
GRIDFORMAT_BEGIN
 90
        0
 91
        1
 62
     0
 92
       -2
340
0
 93
        0
 40
0.045
309
GRIDFORMAT_END
309
TABLEFORMAT_END
  1
CELLSTYLE_BEGIN
 90
        3
 91
        2
300
_DATA
309
CELLSTYLE_END
  0
ENDSEC
  0
SECTION
  2
ACDSDATA
 70
     2
 71
     8
  0
ACDSSCHEMA
 90
        0
  1
AcDb_Thumbnail_Schema
  2
AcDbDs::ID
280
    10
 91
        8
  2
Thumbnail_Data
280
    15
 91
        0
101
ACDSRECORD
 95
        0
 90
        1
  2
AcDbDs::TreatedAsObjectData
280
     1
291
     1
101
ACDSRECORD
 95
        0
 90
        2
  2
AcDbDs::Legacy
280
     1
291
     1
101
ACDSRECORD
  1
AcDbDs::ID
 90
        3
  2
AcDs:Indexable
280
     1
291
     1
101
ACDSRECORD
  1
AcDbDs::ID
 90
        4
  2
AcDbDs::HandleAttribute
280
     7
282
     1
  0
ACDSSCHEMA
 90
        1
  1
AcDbDs::TreatedAsObjectDataSchema
  2
AcDbDs::TreatedAsObjectData
280
     1
 91
        0
  0
ACDSSCHEMA
 90
        2
  1
AcDbDs::LegacySchema
  2
AcDbDs::Legacy
280
     1
 91
        0
  0
ACDSSCHEMA
 90
        3
  1
AcDbDs::IndexedPropertySchema
  2
AcDs:Indexable
280
     1
 91
        0
  0
ACDSSCHEMA
 90
        4
  1
AcDbDs::HandleAttributeSchema
  2
AcDbDs::HandleAttribute
280
     7
 91
        1
284
     1
  0
ACDSRECORD
 90
        0
  2
AcDbDs::ID
280
    10
320
20
  2
Thumbnail_Data
280
    15
 94
     2885
310
89504E470D0A1A0A0000000D49484452000001000000008B0803000000B9ACB7FB00000300504C5445D6D6D6FFFFFFD6D6D60000000000000000000000000000000000000000000000000000330000660000990000CC0000FF0033000033330033660033990033CC0033FF0066000066330066660066990066CC0066FF0099
310
000099330099660099990099CC0099FF00CC0000CC3300CC6600CC9900CCCC00CCFF00FF0000FF3300FF6600FF9900FFCC00FFFF3300003300333300663300993300CC3300FF3333003333333333663333993333CC3333FF3366003366333366663366993366CC3366FF3399003399333399663399993399CC3399FF33CC00
310
33CC3333CC6633CC9933CCCC33CCFF33FF0033FF3333FF6633FF9933FFCC33FFFF6600006600336600666600996600CC6600FF6633006633336633666633996633CC6633FF6666006666336666666666996666CC6666FF6699006699336699666699996699CC6699FF66CC0066CC3366CC6666CC9966CCCC66CCFF66FF0066
310
FF3366FF6666FF9966FFCC66FFFF9900009900339900669900999900CC9900FF9933009933339933669933999933CC9933FF9966009966339966669966999966CC9966FF9999009999339999669999999999CC9999FF99CC0099CC3399CC6699CC9999CCCC99CCFF99FF0099FF3399FF6699FF9999FFCC99FFFFCC0000CC00
310
33CC0066CC0099CC00CCCC00FFCC3300CC3333CC3366CC3399CC33CCCC33FFCC6600CC6633CC6666CC6699CC66CCCC66FFCC9900CC9933CC9966CC9999CC99CCCC99FFCCCC00CCCC33CCCC66CCCC99CCCCCCCCCCFFCCFF00CCFF33CCFF66CCFF99CCFFCCCCFFFFFF0000FF0033FF0066FF0099FF00CCFF00FFFF3300FF3333
310
FF3366FF3399FF33CCFF33FFFF6600FF6633FF6666FF6699FF66CCFF66FFFF9900FF9933FF9966FF9999FF99CCFF99FFFFCC00FFCC33FFCC66FFCC99FFCCCCFFCCFFFFFF00FFFF33FFFF66FFFF99FFFFCCFFFFFF0000000D0D0D1A1A1A2828283535354343435050505D5D5D6B6B6B787878868686939393A1A1A1AEAEAEBB
310
BBBBC9C9C9D6D6D6E4E4E4F1F1F1FFFFFF0000000000000000000000000000000000000000000000000000000000008A60A2FA000000B94944415478DAEDDA410E82301040D1B9FF31E7246C40A0B6A0812634BCB7698350F12BE8C2080000000000000000000000008037C9C15D0F30F8FB27800037ACD0F7221340000104
310
10C0D7A00002082080000208208000023C37C0F2DB3FEB93F88C79329E1C98D13CA47D12C5B4CF2760593BCBC92FE3D781470BB4F78C72DC3CB4DBDAE512C8E6647EDAF59C8EC7CA86F8778FCD2BAD4FDD030410400001041040808B2BBCFDFF01000000000000000000000000002399008F2904A4E70581D3000000004945
310
4E44AE426082CB40E847163042287C95DC50DE1B56B27E2F1C4D5559CC32D8C8D5C46741A3B7093C0E0040559FAAF935E55CA43CF9E39393FB1AA53409869585F432D90F33FAF6C9C96D8BD3FD034D9B1D2F08E09793FBBD0026B42A091033E04E29A90E2CE07313B8BF004B271892B1BFA53B1C72721B0418684DC04E0B50
310
A5FBDFDBC8B7AD00C35B0002E42D21853E523A608B54B594545F1610E3A028405ECC2F52528D9B80720116F5EF312555D90234574DF39828A89C7E6A3244D9D0D30C9F181B550069740102028C29806CA7349200597F30F54FA35BC048029456318D244061C1C660021496709C11403BCED4BEFD0A6A640CE79AC0F65C4F4A
310
7C76B030A25C5F770BD85782BC9D406301760FFA5A35817602F4706949630B30BC05542F110BB8A000AB3DEE28023CF4783CA69A3FDF85108E871D0D04A81E11AD045CC734D0CE728F0920EF26703CF86C2480CBAEDFD64EF0A800F19E753ABA8C839D2F4F26880BC2BE8E9A642B1CE717BB156071BBD6FFD18F7751850BA5
310
2FA9DF8DEFDF37C66C6C022B17B2F6D3B1001F87187B0478BB904CCBAA69B54A4F94904E840185EA9EB380352758B309A4D97AA5E59A0D04387121D55D4A2B190B586C62EE5480EA8E5B6605E3152C20740B022000025CD0099AE06AFAA9186679241654FDA6E5B150DD4EB6FED7E420C01C5BCDD3758733428E84107C66C9
310
E67D4A4A31C0F150F83FBF965E62A66DDF4BE96BE10A385BC0F0025C712B47FF4EF082B0BB1DE0EA8D386D19509EFF3399F0149C9ECED4F5E8C594368EDA0C70B6C554CB50FD6602C4F87BFA2C7FEAA2CCEEA2B399BA1E9B807D6080CC94B4B2BD45CAD5A0FF03B8911BC8A7A262FF171613603E89AA3EE2F93813933A8660
310
E6A83C1355FD08A0BCB25A44457512551D4703A9BEB6A7330F9DA892A8020000000000000000000000000000000000000000000000000000000000000000000000000000807BF1070B16FF4C0E6A5E810000000049454E44AE426082BCD50D974CFC10C099617E19408E66C91A0B9C5FB77847000F3F787E1ABC320B640140
310
5700D02700022E8C84BAAEDF0510D50216FCA105442C886C4E504C017E24F8B905C4AE08BD7FA12300EDB9EA0404720697007C62016D2B0942AD93BF6C012800FE13F187007017006AEBC77927B84F01197D00D85EC7971DDC290E387104C2029CBED1DD01B0DD4EFEC30E6E0FE0D6A170012800A723C14BA5B2FB5900A61F
310
02281F50000A405A00FF001B35EA4E099F3EE20000000049454E44AE4260823682A7EB01584EF7F0F8E0E96A0056CE81B17F2E8CD27FD66E0E401C6BD975DA9B0A49EDEAC1D3F50DE1EF1E9739F71EFAA4A80250000A4001280005A00014800250000A4001280005A000148002485FEE3F290005B03343C6A3E95E5ECB9F74
310
177B5B09C0783CBDABBF5E787FBD5E55CDA7078071191ED86F7871ECF5D843121F058005804DEE8D47300D5A7A69AFF60710F9D1CB049747ACE38B4B006C433F61E7EBF28D0F0190A6005B6CE7422B3F0400F6E3BFB1F4DE5DC38B23AB18AB06243E7BB30D58248660B009000C40E8F818440E388406A4003C25444A7EFCA3
310
06C4A107EFD8F4E185D054D680F5777BCBCF00B001F64279BD88727AD54F00603C084012A809603A0B00A3B02208862B6837F8546606C3CFFD6003BCBC7F3905B0D9CE96CEF2E3262F100DA3B77B2163EF27DF15671ED3CE9FD5006C72B3AF2C2EE0A67540D4A46008A499765287979C1427019C1A995B17426156C8BE7205
310
280038A901782680FB6CC02BA66D11F1070AC0DDE815C3B3D5E43F6150ABDD801710950000000049454E44AE42608274573C39CC00C49F58A660E8B8654A5AA7DCFC3468A1A841681A84110D124B963498CA3A363E1E37310D329D8585004510142984554AA868B068138C8FC6A5963B292B267E9D0A80289B51F3966681E4
310
5DD4235EC91B84CAA56281F29D93D2606A5A453569514170E86E785791AEEE7CF03C00C81726F0170670075F04207E694ACBEDD277AA54DEDA373300E1EA889C5601D07727EF5A79EB774E0C40A62649EFAEDBE31E79DBBE0935B96925B1DFF88DDFF8D218305770706E783E63F7C8EB1E1E93CAE22FD4053A82C0F023A790
310
C533F5BAB5AB4F6ED774DF91C5A573AD920AAE0480545BCB0F4A8F65F1AA2E40D2B77E73FA3EB2F4BBEAE69A0680F241E95216B7A80784B907AFEFE801D59B5BD34C4D2CD469927E9BAB6340AE5E1782486BC31F9FC6E8BC59AD00E95FE507445B2BC05F0D40199AFEFC5016F743593C3D1E5BF844509217E90C403EEAFB65
310
F10E00D7160DDF2F8BB7A73A150D6A1638AA3A6CC65D1A1702605381978A9CAE6001518B51FD7D48162F637D770550BFEF0C34A8CBBFFB6571798A2DD16063EDF44421D499AFA6C14C1687862C9EF1DC5D59BC770B902CDE98AABFF039C73BEAF57D593CE8E14A1687862C8EED0592079889F4F2967A0D27C9E2E47349209C
310
412F4F8FE6488F61B91DCED76FE52EBF6B1ABD09809E6FFC91DF288BAFA52CEEA410D1FE1F3F5416A749EE92C53B1F399B24F4CF4862BFF11BAF0DEF7F08E0F801F01B9F37FE070EFEB090FA26005A0000000049454E44AE426082
  0
ENDSEC
  0
EOF
